Cifra Club

Despedida de Casal

Gustavo Mioto

Cifra: Principal (violão e guitarra)
tom: Fm (forma dos acordes no tom de Ebm) Capotraste na 2ª casa
[Intro] G  C  Am  D

(Guitarra sem Capotraste)
E|-------------------------------------------|
B|-------------------------------------------|
G|-------------------------------------------|
D|-7-9-9h11-11--------9-11-11h12--12---------|
A|-------------7-7h9-----------------11/12-11|
E|-------------------------------------------|

E|-------------------------------------------|
B|-------------------------------------------|
G|-------------------------------------------|
D|-7-9-9h11-11--------9-11-11h12--12---------|
A|-------------7-7h9-----------------11/12-11|
E|-------------------------------------------|

[Primeira Parte]

 G                              Em
Mesa pra dois num restaurante chique
          C                     D
Vinho chileno, na entrada um ceviche
          G                 Em
Toda cheirosa, fez até penteado
          C                 D
Batom vermelho e vestido colado

[Pré-Refrão]
       G                  
Ela passou a noite sorrindo
   Em
Falou que eu tava lindo
  C                              D
Queria que a noite fosse inesquecível e foi

[Refrão]

        G                   C
Foi nosso jantar à luz de adeus
          Am          D
Nossa despedida de casal
          G                        Em
Ela terminou sem derramar nenhuma lágrima
            Am                D
E eu ainda não digeri esse final

        G                   C
Foi nosso jantar à luz de adeus
          Am          D
Nossa despedida de casal
          G                        Em
Ela terminou sem derramar nenhuma lágrima
            Am                D
E eu ainda não digeri esse final
  C             D           G
Tá engasgado aqui aquele tchau

[Solo] G  C  Am  D  G  Em  Am  D

(Guitarra sem Capotraste)
E|-------------------------------------------|
B|-------------------------------------------|
G|-------------------------------------------|
D|-7-9-9h11-11/7-7--9-11-11h12--12-----------|
A|---------------------------------h11/12-11-|
E|-------------------------------------------|

E|-------------------------------------------|
B|-------------------------------------------|
G|-------------------------------------------|
D|-12-13-15--------------16-14~-12-12--------|
A|----------13-14-16p14---------14-14-11~----|
E|-------------------------------------------|

[Primeira Parte]

 G                              Em
Mesa pra dois num restaurante chique
          C                     D
Vinho chileno, na entrada um ceviche
          G                 Em
Toda cheirosa, fez até penteado
          C                 D
Batom vermelho e vestido colado

[Pré-Refrão]
       G                  
Ela passou a noite sorrindo
   Em
Falou que eu tava lindo
  C                              D
Queria que a noite fosse inesquecível e foi

[Refrão]

        G                   C
Foi nosso jantar à luz de adeus
          Am          D
Nossa despedida de casal
          G                        Em
Ela terminou sem derramar nenhuma lágrima
            Am                D
E eu ainda não digeri esse final

        G                   C
Foi nosso jantar à luz de adeus
          Am          D
Nossa despedida de casal
          G                        Em
Ela terminou sem derramar nenhuma lágrima
            Am                D
E eu ainda não digeri esse final
  C             D           G
Tá engasgado aqui aquele tchau
00:00 / 00:00
Outros vídeos desta música
Repetir
Outros vídeos desta música
Composição de Flávinho Do Kadet / Gabriel Do Cavaco / Junior Gomes
109.882 exibições
    • ½ Tom
    • Am
    • Bbm
    • Bm
    • Cm
    • C#m
    • Dm
    • Ebm
    • Em
    • Fm
    • F#m
    • Gm
    • G#m
  • Adicionar à lista

    0 comentários

    Ver todos os comentários

    Conseguiu tocar?

    27 Tocaram 2 Ainda não

    Grave um vídeo tocando Despedida de Casal e nos envie!

    00:00 / 00:00

    Cifra Club Pro

    Aproveite o Cifra Club com benefícios exclusivos e sem anúncios
    Cifra Club Pro
    Aproveite o Cifra Club com benefícios exclusivos e sem anúncios
    OK