Cifra Club

Aprenda

A Porta Sou Eu

Harpa Cristã

Cifra: Principal (violão e guitarra)
Tom: A
E|---------------5-5-5--|----7--7--7-----------------7--|-9--------------5-5-5--|
B|----------5--5-5-5-5--|-7--7--7--7---9--9---9-9-10----|-----10-5-----5-----5--|
G|----------6--6-6-6-6--|-7--7--7--7---9--9---9-9-9--9--|-9---6--6-----6-6-6-6--|
D|----------7--7--------|-7------------9--9---9-9-7-----|-7---7--7-----7--------|
A|----------------------|--------------7--7---7-7----11-|-0---0--0-----0-0-0-0--|
E|----------5--5-5-5-5--|-10-10-10-10-------------9--7--|-----------------------|

E|----7-7-7-----12-------|-9-------7------------|
B|-7--7-7-7--------------|-0-----------10-------|
G|-7--7-7-7-----9--------|-9-------7---6--------|
D|-0--0-0-0-----11-------|---------6---7--------|
A|-12-----------7--------|-7-------7---0--------|
E|-----------------------|----------------------|
Colaboração e revisão:
  • Helon Oliveira
3.057 exibições
    • ½ Tom
    • A
    • Bb
    • B
    • C
    • Db
    • D
    • Eb
    • E
    • F
    • F#
    • G
    • Ab
  • Adicionar à lista

    0 comentários

    Mostrar mais comentários
    00:00 / 00:00
    outros vídeos desta música
    repetir qualidade Automático
    Outros vídeos desta música
    00:00 / 00:00
    Automático

    Cifra Club Pro

    Aproveite o Cifra Club com benefícios exclusivos e sem anúncios
    7 dias grátis
    Cifra Club Pro
    Aproveite o Cifra Club com benefícios exclusivos e sem anúncios
    7 dias grátis
    OK