Cifra Club

Aprenda

Fogo Divino

Harpa Cristã

Cifra: Principal (violão e guitarra)
Tom: G
1E|---7--7-7-5-3----7--8--7---|-10-12-10-10-------------------|
B|-3-3--3-3-----10-----------|-8--8--8--8--12-12-12-10-8-10--|
G|-4--------5-4-7--7--7--7---|-0--0--0--0--0--0--0--0--6-7---|
D|-5-5--5-5-5-5-0--0--0------|-9--10-9--9--12-12-11-11-7-0---|
A|--------------9--10-12-10--|-------------------------0-9---|
E|-3-3--3-3-3-3--------------|-------------------12-12-------|

E|----7---7--7----------7-8-7--|-10-12--10-10-7-----------------|
B|-0------------10-8-10-----3--|-8--8---8--8--8--0--10-0--7--8--|
G|-7--7---7--7--0--0-7--7-7----|-0--0------0--7--12-11-12-7--7--|
D|--------------10-9-0--5-7-5--|-9--10--9--9--------10----7--9--|
A|-10-10--10-10------9--5-5----|--------------10-10-------------|
E|--------------------------3--|--------------------10-10-10-7--|

E|-10-10--10-12-10--7--7---7--8--7--|-5-5-5-5-0-5-7----10--|
B|-8--8---8--8--8---8--8---8--8--8--|-7-7-7-7-8-7-8--------|
G|-0--0---0--0--0---7--7---7--9--7--|-7-7-7-7-7-7-0--------|
D|-9--9---9--10-9-------------------|-0-0-0-0-0-0-12---9---|
A|------------------10-10--10-10-10-|----------------------|
E|----------------------------------|----------------------|

E|-10-10--10-12-10--7--7---7--8--7--|-12-12-12-10-7--5--3--------|
B|-8--8---8--8--8---8--8---8--8--8--|-8--8--8--0--8--7--0--------|
G|-0--0---0--0--0---7--7---7--9--7--|----------12-7--5-----------|
D|-9--9---9--10-9-------------------|-10-10-10-0--0--0-----------|
A|------------------10-10--10-10-10-|----------------------------|
E|----------------------------------|-8--8--8-----------3--------|

E|----------------------|
B|----------------------|
G|----------------------|
D|----------------------|
A|----------------------|
E|----------------------|
Composição de José Tenório de Lima
Colaboração e revisão:
  • Helon Oliveira
3.685 exibições
    • ½ Tom
    • A
    • Bb
    • B
    • C
    • Db
    • D
    • Eb
    • E
    • F
    • F#
    • G
    • Ab
  • Adicionar à lista

    0 comentários

    Mostrar mais comentários
    00:00 / 00:00
    outros vídeos desta música
    repetir qualidade Automático
    Outros vídeos desta música
    00:00 / 00:00
    Automático

    Cifra Club Pro

    Aproveite o Cifra Club com benefícios exclusivos e sem anúncios
    7 dias grátis
    Cifra Club Pro
    Aproveite o Cifra Club com benefícios exclusivos e sem anúncios
    7 dias grátis
    OK