Enviar cifraEntrar

Vem, Ó Perdido

Harpa Cristã

Cifra: Principal
exibições 342
Tom: C

E|-------------------10----------|-------3----3--5-3---1-0-1-|
B|----------13-13-10----13-10-13-|-11-10-5-6--5--6-6-6-3-1-3-|
G|----------10-10-10-13-14-10-10-|-12-10-3-7--5--5-3-2-0-0-4-|
D|----------------10----10-10-13-|-12-10---7-----3-3-3-------|
A|----------12-12----14-------12-|-13----3-5--3--------------|
E|----------13-13-13-13-13-13----|-------------------------3-|


E|----------10-8-----10----------|-------3-5-------5-6---5-3-|
B|-8--------------10----13-10-13-|-11-10-5-6--6--8-7-3-5-6-5-|
G|-9--------9--10-10-13-14-10-10-|-10-10-5-5--5--7-5---5-5-5-|
D|-10-------8--7--10----10-10-13-|-12-10------7--8-----5-----|
A|-------------8-----14-------12-|-13----3-8--8--------3-3-3-|
E|-8--------8-----13-13-13-13----|---------------6-5-3-------|


E|-------------5-------4-5-|-1-------------------10----|
B|-6--------1--1-------0-1-|-1-----1---1-10---------13-|
G|-2--------2--------------|-2-2-2-2-2-2-10------10-10-|
D|-3--------3--3----3----3-|-3-3-3-3-3-3-10---10-------|
A|-------------------------|------------------------12-|
E|-------------------------|-------------13---13----13-|


E|-6--------6----------------|-10-----8-----8--7----------10-|
B|-5--------5--8-------10-11-|-------------------------8--0--|
G|-5-5-5-5--5--9-------10-12-|-10-----10----10-10------10-10-|
D|-5-5-5-5--5--10---10----10-|-8--8-8----------12---12-------|
A|---------------------------|-8--8-8-12-12-12-10---10----10-|
E|-------------8----8-----8--|--------13-13-13---------------|


E|-8-----------6--5-------4-5-|-------------5-------10-8-|
B|----------8--5--6-------6-6-|-6-----------6-------7--7-|
G|-9--9--10----5--5-5-5-5-4-5-|-5-----5---5-5-5-5-5----7-|
D|----------8-----------------|-7-7-7-7-7-7------------0-|
A|-10-10-12-------8-8-8-8-8-8-|-8-8-8-8-8-8-8-8-8-8------|
E|-8--8--8--8--8--------------|--------------------------|


E|-6--------6--5-------0-3-|-3-----1---3-5---------3-|-1--------------------|
B|-8--------3--5-------2-5-|-5-----3---5-6-------1-1-|-1---3-1--------------|
G|-7-7-7-7-----6-6-6-6-2-2-|-2-2-2-2-2-3-5-5-5-5---3-|-2-2-3-2--------------|
D|-5-5-5-5-----------------|-0-0-0-0-0---------------|-3-3-3-3--------------|
A|-------------0-0-0-0-0-0-|-----------4-3-3-3-3---3-|----------------------|
E|----------3--------------|-------------------------|----------------------|
  • 1
  • 2
  • 3
  • 4
  • 5
  • 6
  • 7
  • 8
  • 9
  • 10
  • 11
  • 12
    Acordes para:
      Colaboração e revisão:
      • Helon C.O.

      0 comentários

        mostrar mais comentários

        Conseguiu tocar?

        0tocaram0ainda não

        Grave um vídeo tocando Vem, Ó Perdido e mande pra gente!

        00:00 / 00:00
        outros vídeos desta música
        repetirqualidadeautomática
        • automática
        Outro vídeos desta música
          00:00 / 00:00
          automática
          • automática
          Acordes para:violão e guitarra
          dificuldadeexibiçõescontribuições
          3 versões de Partiturasformatodownloadscontribuição
          fecharplay/pause subir/descer velocidade
            acordes
            fechar
            OK
            Feedback