Cifra Club

Acoustic Medley

In Flames

Tab de baixo: Principal
Tune Down

F#||------------------------|------------------------|
C#||------------------------|------------------------|
G#||--0--0----0--0----0--0--|--0--0----0--0----0--0--|
D#||------------------------|------------------------|
                                                                             
--10--10--10--7--7--7--5--5--|----------------------|------------------------|
-----------------------------|----------------------|------------------------|
--8---8---8---8--8--8--8--8--|----------------------|--0--0----0--0----0--0--|
-----------------------------|--8----8----7----7----|------------------------|
                                                                             
------------------------|--10--10--10--7--7--7--5--5--|----------------------|
------------------------|-----------------------------|----------------------|
--0--0----0--0----0--0--|--8---8---8---8--8--8--8--8--|----------------------|
------------------------|-----------------------------|--8----8----7----7----|
                                                                          
-----------------------|------------------------|------------------------|
-----------------------|------------------------|------------------------|
--3--3-----------------|----------0--0--0--0----|--3--3------------------|
----------3----3--3----|--1--1------------------|----------3--3--3--3----|
                                                                          
------------------------|-----------------------|------------------------|
------------------------|-----------------------|------------------------|
------------------------|--3--3-----------------|----------0--0--0--0----|
--1--1----3--3--3--3----|----------3----3--3----|--1--1------------------|
                                                                          
------------------------|------------------------|------------------------|
------------------------|------------------------|------------------------|
--3--3------------------|------------------------|--0--0----0--0----0--0--|
----------3--3--3--3----|--1--1----3--3--3--3----|------------------------|
                                                                              
------------------------|--10--10--10--7--7--7--5--5--|----------------------|
------------------------|-----------------------------|----------------------|
--0--0----0--0----0--0--|--8---8---8---8--8--8--8--8--|----------------------|
------------------------|-----------------------------|--8----8----7----7----|
                                                                                
------------------------|------------------------|--10--10--10--7--7--7--5--5--|
------------------------|------------------------|-----------------------------|
--0--0----0--0----0--0--|--0--0----0--0----0--0--|--8---8---8---8--8--8--8--8--|
------------------------|------------------------|-----------------------------|
                                                                             
----------------------|--------------------------|--------------------------|
----------------------|-----7-----7-----7-----7--|-----7-----7-----7-----7--|
----------------------|--0-----0-----0-----0-----|--0-----0-----0-----0-----|
--8----8----7----7----|--------------------------|--------------------------|
                                                      
--------------------------|--------------------------|
-----7-----7-----7-----7--|-----7-----7-----7-----7--|
--0-----0-----0-----0-----|--0-----0-----0-----0-----|
--------------------------|--------------------------|
                                                      
--------------------------|--------------------------|
-----7-----7-----7-----7--|-----7-----7-----7-----7--|
--0-----0-----0-----0-----|--0-----0-----0-----0-----|
--------------------------|--------------------------|
                                                                           
--------------------------|--------------------------|--------------------|
-----7-----7-----7-----7--|-----7-----7-----7-----7--|--------------------|
--0-----0-----0-----0-----|--0-----0-----0-----0-----|--7----7------------|
--------------------------|--------------------------|--0----0------------|
                                                              
--------------------|---------------------|--------------------|
--------------------|---------------------|--------------------|
--7----7------------|--7----7----2--------|--3--------5--------|
--0----0------------|--0----0-------------|--------------------|
                                                               
--------------------|--------------------|---------------------|
--------------------|--------------------|---------------------|
--7----7------------|--7----7------------|--7----7----2--------|
--0----0------------|--0----0------------|--0----0-------------|
                                                                          
--------------------|--------------------------|--------------------------|
--------------------|-----7-----7-----7-----7--|-----7-----7-----7-----7--|
--3--------5--------|--0-----0-----0-----0-----|--0-----0-----0-----0-----|
--------------------|--------------------------|--------------------------|
                                                      
--------------------------|--------------------------|
-----7-----7-----7-----7--|-----7-----7-----7-----7--|
--0-----0-----0-----0-----|--0-----0-----0-----0-----|
--------------------------|--------------------------|
                                                     
--------------------------|--------------------------|
-----7-----7-----7-----7--|-----7-----7-----7-----7--|
--0-----0-----0-----0-----|--0-----0-----0-----0-----|
--------------------------|--------------------------|
                                                      
--------------------------|--------------------------|
-----7-----7-----7-----7--|-----7-----7-----7-----7--|
--0-----0-----0-----0-----|--0-----0-----0-----0-----|
--------------------------|--------------------------|
                                                      
--------------------------|----------------------------|
--------------------------|----------------------------|
-----7-----7-----7-----7--|-----3-----3------9------9--|
--0-----0-----8-----8-----|--5-----5-----10-----10-----|
                                                        
--------------------------|------------------------------|
--------------------------|------------------------------|
-----7-----7-----7-----7--|------9------9------9------9--|
--0-----0-----8-----8-----|--10-----10-----10-----10-----|
                                                        
--------------------------|----------------------------|
--------------------------|----------------------------|
-----7-----7-----7-----7--|-----3-----3------9------9--|
--0-----0-----8-----8-----|--5-----5-----10-----10-----|
                                                                             
--------------------------|------------------------------|--------------------|
--------------------------|------------------------------|--------------------|
-----7-----7-----7-----7--|------9------9------9------9--|-----------7--------|
--0-----0-----8-----8-----|--10-----10-----10-----10-----|--0-----------------|
                                                              
-------------------|--------------------|--------------------|
-------------------|--------------------|--------------------|
--3----------------|--3--------5--------|--7----7------------|
-------------------|--------------------|--0----0------------|
                                                               
--------------------|---------------------|--------------------|
--------------------|---------------------|--------------------|
--7----7------------|--7----7----2--------|--3--------5--------|
--0----0------------|--0----0-------------|--------------------|
                                                               
--------------------|--------------------|---------------------|
--------------------|--------------------|---------------------|
--7----7------------|--7----7------------|--7----7----2--------|
--0----0------------|--0----0------------|--0----0-------------|
                                                                 
--------------------|-------------------|-------------------|----||
--------------------|-------------------|-------------------|----||
--3--------5--------|-------------------|-------------------|----||
--------------------|--0----------------|--0----------------|----||
00:00 / 00:00
Outros vídeos desta música
Repetir
Outros vídeos desta música
Compositor não encontrado.
Colaboração e revisão:
  • Taino Vieira
68 exibições

0 comentários

Ver todos os comentários

Conseguiu tocar?

0 Tocaram 0 Ainda não

Grave um vídeo tocando Acoustic Medley e nos envie!

00:00 / 00:00

Cifra Club Pro

Aproveite o Cifra Club com benefícios exclusivos e sem anúncios
Cifra Club Pro
Aproveite o Cifra Club com benefícios exclusivos e sem anúncios
OK