Cifra Club

For The Love Of You

The Isley Brothers

Tab de baixo: Principal
exibições 1.112
Intro:
G|---------------------------------------------------------------------------|
D|--5------------------------------------------------------------------------|
A|----4-5---7--------4-5----2-------4-2------0-2-----------------------------|
E|-------------\3---------2----0-2-------0-2---------------------------------|

Verso:
G|---------------------------------------------------------------------------|
D|---------------------------------------------------------------------------|
A|--------------------5---------------------------7--5-----------------------|
E|--5-----7-5-0-5-------2-3--5-----7-5-0-5----55-----------------------------|
     
G|---------------------------------------------------------------------------|
D|---------------------------------------------------------------------------|
A|-------7-5-------7-5-------7-5-----5---------5----4-5----------------------|
E|--/7-5------/7-5-------/7-5----------2-3-------7------2-3------------------|

Ponte:
G|---------------------------------------------------------------------------|
D|---------------------------2-----------------------------------------------|
A|--4-5---------4-5---------2-2---------------------------------2------------|
E|------3--2--------2-0-----------0---5----5-7-5--2--3----2-2--2-------------|

G|------2-4/6-4-----2--4-----------------------------------------------------|
D|--2-4-------------------2---4--- BACK TO INTRO ----------------------------|
A|---------------------------------------------------------------------------|
E|---------------------------------------------------------------------------|


0 comentários

    mostrar mais comentários

    Conseguiu tocar?

    0tocaram0ainda não

    Grave um vídeo tocando For The Love Of You e mande pra gente!

    00:00 / 00:00
    outros vídeos desta música
    repetirqualidadeAutomático
    Outro vídeos desta música
      00:00 / 00:00
      OK