Cifra Club

The Sun Is In Your Eyes

Jacob Collier

Cifra: Principal (violão e guitarra)
Selo Cifra Club: esta cifra foi revisada para atender aos critérios oficiais da nossa Equipe de Qualidade.
tom: C#m
[Verse]
E|---0-------0-------0-------0------------------------------------------------|
B|-----------5-------5--------------------------------------------------------|
G|---1(2)----2-------2-------1(2)---------------------------------------------|
D|---2-------6-------4-------2------------------------------------------------|
A|-----------4-------2--------------------------------------------------------|
E|---0-----------------------0------------------------------------------------|

E|---0-------0-------0-------0------------------------------------------------|
B|-----------5-------5--------------------------------------------------------|
G|---1(2)----2-------2-------1(2)---------------------------------------------|
D|---2-------6-------4-------2------------------------------------------------|
A|-----------4-------2--------------------------------------------------------|
E|---0-----------------------0------------------------------------------------|

[Chorus]
E|---0-------0-------0-------0-------0-------0(4)-----------------------------|
B|---5-------5---------------0-------2----------------------------------------|
G|-------------------1(2)----2-------2-------1(2)-----------------------------|
D|---6-------4-------2-------2-------2(4)----2--------------------------------|
A|---4-------2-----------------------0----------------------------------------|
E|-------------------0-------2---------------0--------------------------------|

E|---0-------0-------0-------0-------0-------0-------0------------------------|
B|---5-------5---------------0-------2----(4)5--------------------------------|
G|-------------------1(2)----2(4)----2(4)----0-------1(2)---------------------|
D|---6-------4-------2-------2-------2-------5-------2------------------------|
A|---4-------2-----------------------0-------3--------------------------------|
E|-------------------0-------2---------------0-------0------------------------|

[Outro]
E|---0-------0-------0--------------------------------------------------------|
B|---0-------2----------------------------------------------------------------|
G|---4----(5)2(4)----1(2)-----------------------------------------------------|
D|---2-------2-------2--------------------------------------------------------|
A|-----------0----------------------------------------------------------------|
E|---2---------------0--------------------------------------------------------|
00:00 / 00:00
Outros vídeos desta música
Repetir
Outros vídeos desta música
639 exibições
    • ½ Tom
    • Am
    • Bbm
    • Bm
    • Cm
    • C#m
    • Dm
    • Ebm
    • Em
    • Fm
    • F#m
    • Gm
    • G#m
  • Adicionar à lista

Afinação da cifra

Afinador online

    0 comentários

    Ver todos os comentários

    Entre para o Cifra Club PRO

    Tenha acesso a benefícios exclusivos no App e no Site

    • Chega de anúncios

    • Mais recursos no app do Afinador

    • Atendimento Prioritário

    • Aumente seu limite de lista

    • Ajude a produzir mais conteúdo

    00:00 / 00:00

    Cifra Club Pro

    Aproveite o Cifra Club com benefícios exclusivos e sem anúncios
    Cifra Club Pro
    Aproveite o Cifra Club com benefícios exclusivos e sem anúncios
    OK