Cifra Club

Time To Rest Your Weary Head

Jacob Collier

Cifra: Principal (violão e guitarra)
Selo Cifra Club: esta cifra foi revisada para atender aos critérios oficiais da nossa Equipe de Qualidade.
tom: C#m
E|------0-----------------------0-------0-------|
B|-------------0--------------------------------|
G|----------------------------------------------|
D|----------------------------6----6|  ͡ 7------|
A|----------------------------------------------|
E|--0-----------------------0-------------------|

E|--------------------0--------0---------------|
B|--------------------------0------------------|
G|---------------------------------------------|
D|-----6| ---4-6-6 ͡ 7------------------------|
A|---------------------------------------------|
E|--0-----0---------------0--------------------|

(Strum From High To Low)
E|--0-----0-----0-----------------------------------------|
B|--0-----0-----0-----------------------------------------|
G|--1-----1-----2-----6|  ͡ 4 ͡ 6 ͡ 4 ͡ 2-----------|
D|--4-----0-----0-----------------------------------------|
A|--0-----0-----0-----------------------------------------|
E|--0-----0-----0-----------------------------------------|


[Verse 1]

E|----------------------------------------|
B|----------------------------------------|
G|----------------------------------------|
D|---2---2---2---2---4-------4---4---6----|
A|-----------------------6---6---6--------|
E|-0---0---0---0---0---0---0---0---0---0--|

E|----------------------------------------|
B|----------------------------------------|
G|----------------------------------------|
D|-----6---6---7---7---7---7---6---4---6--|
A|-7---7---7---4---4---4---3---3---3---3--|
E|---0---0---0---0---0---0---0---0---0----|

E|--------------------------------------|
B|--------------------------------------|
G|--------------------------------------|
D|-------2---2---2---2---4-------4---4--|
A|---3-----------------------6---6---6--|
E|-0---0---0---0---0---0---0---0---0----|

E|----------------------------------------|
B|----------------------------------------|
G|----------------------------------------|
D|--6------6---6---7---7---7---7---6---4--|
A|-----7---7---7---4---4---4---3---3---3--|
E|0---0---0---0---0---0---0---0---0---0---|

E|----------------------------------------|
B|----------------------------------------|
G|----------------------------------------|
D|---2---9---9---9---4---4---4---2---2----|
A|---3---7---7---7---2---2---2---0---0----|
E|-0---0---0---0---0---0---0---0---0---0--|

E|---------0-------0----------------------|
B|----------------------------------------|
G|----------------------------------------|
D|-2---2-------2-------2------------------|
A|-0---0-------0-------0------------------|
E|---0---0---0---0---0---0----------------|
Outros vídeos desta música
53 exibições
    • ½ Tom
    • Am
    • Bbm
    • Bm
    • Cm
    • C#m
    • Dm
    • Ebm
    • Em
    • Fm
    • F#m
    • Gm
    • G#m
  • Adicionar à lista

Afinação da cifra

Afinador online

    0 comentários

    Ver todos os comentários

    Entre para o Cifra Club PRO

    Tenha acesso a benefícios exclusivos no App e no Site

    • Chega de anúncios

    • Mais recursos no app do Afinador

    • Atendimento Prioritário

    • Aumente seu limite de lista

    • Ajude a produzir mais conteúdo

    Cifra Club Pro

    Aproveite o Cifra Club com benefícios exclusivos e sem anúncios
    Cifra Club Pro
    Aproveite o Cifra Club com benefícios exclusivos e sem anúncios
    OK