Cifra Club

Somebody To Love

Jefferson Airplane

Cifra: Principal (violão e guitarra)
tom: F#m
[Primeira Parte]

           F#m          B  E  F#m
When the truth is found   to be lies
                B     E    F#m
And all the joy   within you dies

[Refrão]

           A        E       F#m
Don't you want somebody to love
 B         A        E       F#m
Don't you need somebody to love
 B            A        E       F#m
Wouldn't you love somebody to love
 B          E9       B       F#m
You better find somebody to love

[Solo] E9  F#m  E9  F#m 

[Tab - Solo]

Parte 1 de 2
E|------------------------------------------|
B|------------------------------------------|
G|-------2-4p2-4b6--b6-4-2-2----------------|
D|-4-4-4---------------------4--2---2-4b6r4-|
A|--------------------------------4---------|
E|------------------------------------------|

Parte 2 de 2
E|------------------------------------------|
B|------------------------------------------|
G|-2-------------------------2-4-4b6r4p2----|
D|-4-4-2-4--4--2---2h4-4-2-4-------------4--|
A|---------------4--------------------------|
E|------------------------------------------|

[Segunda Parte]

          F#m           B
When the garden flowers 
 E    F#m  B     E 
Baby, are dead, yes
     F#m             B   E
And your mind, your mind
       F#m        B7
Is so full of red

[Refrão]

           A        E       F#m
Don't you want somebody to love
 B         A        E       F#m
Don't you need somebody to love
 B            A        E       F#m
Wouldn't you love somebody to love
 B          E        B       F#m
You better find somebody to love

[Terceira Parte]

Your eyes, I say your eyes 
                  A6(9)  B
May look like his,         yes
    F#m              A
But in your head, baby
       E                    F#m       A 
I'm afraid you don't know where it is

[Refrão]

B            A        E       F#m
  Don't you want somebody to love
 B         A        E       F#m
Don't you need somebody to love
 B            A        E       F#m
Wouldn't you love somebody to love
 B          E9       B       F#m
You better find somebody to love

[Solo] E  B7  A  F#m 

[Tab - Solo]

Parte 1 de 2
E|------------------------------------------|
B|-----10--12~-10---------------------------|
G|-/11------------11-9b11r9-7--4b6r4-2------|
D|------------------------------------------|
A|------------------------------------------|
E|------------------------------------------|

Parte 2 de 2
E|------------------------------------------|
B|-------7----------------------------------|
G|---4h6---4b6r4-2---2----------------------|
D|-4---------------4---4--------------------|
A|------------------------------------------|
E|------------------------------------------|

[Quarta Parte]

                  B
Tears are running   up
         F#m                     B7  E
They're running down your breast
     F#m               B
And your friends, baby
       E        F#m         B7
They treat you like a guest

[Refrão]

           A        E       B
Don't you want somebody to love
           A        E       B
Don't you need somebody to love
              A        E       B
Wouldn't you love somebody to love
            A6(9)    B       F#m  B
You better find somebody to love

[Final] F#m  B  F#m  B
        F#m  B  F#m 
        A  E  B 
        A  E  B 
        A  E  B  
        F#m  B

[Tab - Solo]

Parte 1 de 6
E|------------------------------------------|
B|-b14r12-12-10--5b7-------0----------------|
G|-------------------4-4b6---4b6r4-2---2----|
D|-----------------------------------4------|
A|------------------------------------------|
E|------------------------------------------|

Parte 2 de 6
E|------------------------------------------|
B|------------------------------------------|
G|---2h4-4b6r4-4b6-4-2-4b6-b6r4p2---2-------|
D|-4------------------------------4---4-4---|
A|------------------------------------------|
E|------------------------------------------|

Parte 3 de 6
E|------------------------------------------|
B|------------------------------------------|
G|----------------2---2---------------------|
D|-4p2---2h4-4--4---4-----------------------|
A|-----4------------------------------------|
E|------------------------------------------|

Parte 4 de 6
E|------------------------------------------|
B|-----------5-7b9-b9r7-5-------------------|
G|---2-4-4/6--------------b6r4-2---2-4------|
D|-4-----------------------------4----------|
A|------------------------------------------|
E|------------------------------------------|

Parte 5 de 6
E|------------------------------------------|
B|-----5------------------------------------|
G|-4b6---b6r4-2---2-4-4b6-b6r4-2---2--------|
D|--------------4----------------4----------|
A|------------------------------------------|
E|------------------------------------------|

Parte 6 de 6
E|------------------------------------------|
B|-----5-7-7b9-7-7--7p5-----7~--------------|
G|-4b6------------------6-6-----------------|
D|------------------------------------------|
A|------------------------------------------|
E|------------------------------------------|
00:00 / 00:00
Outros vídeos desta música
Repetir
Outros vídeos desta música
Composição de Darby Slick
Colaboração e revisão:
  • Victor Alves
  • Marco Rotta
52.075 exibições
    • ½ Tom
    • Am
    • Bbm
    • Bm
    • Cm
    • C#m
    • Dm
    • Ebm
    • Em
    • Fm
    • F#m
    • Gm
    • G#m
  • Adicionar à lista

    0 comentários

    Ver todos os comentários

    Entre para oCifra Club PRO

    Tenha acesso a benefícios exclusivos no App e no Site

    • Chega de anúncios

    • Prioridade de compra em lançamentos

    • Mais recursos no app do Afinador

    • Atendimento Prioritário

    • Descontos nos produtos Cifra Club

    • Ajude a produzir mais conteúdo

    00:00 / 00:00

    Cifra Club Pro

    Aproveite o Cifra Club com benefícios exclusivos e sem anúncios
    Cifra Club Pro
    Aproveite o Cifra Club com benefícios exclusivos e sem anúncios
    OK