Cifra Club

Meu Pedaço de Pecado

João Gomes

Cifra: Principal (violão e guitarra)
tom: Bm
[Intro] Bm  A  Em  G 
        Bm  A  Em  G

[Tab - Intro]

Parte 1 de 4
E|------------------------------------------|
B|-10--10-7-10-7-10-10/12-------------------|
G|-------------------------11-9-11----------|
D|------------------------------------------|
A|------------------------------------------|
E|------------------------------------------|

Parte 2 de 4
E|------------------------------------------|
B|-10--10-7-10-7-10-10/12-------------------|
G|-------------------------11-9-------------|
D|------------------------------12----------|
A|------------------------------------------|
E|------------------------------------------|

Parte 3 de 4
E|------------------------------------------|
B|-10--10-7-10-7-10-10/12-------------------|
G|-------------------------11-9-11----------|
D|------------------------------------------|
A|------------------------------------------|
E|------------------------------------------|

Parte 4 de 4
E|------------------------------------------|
B|-10--10-7-10-7-10-7-7--10-7-10-7----------|
G|---------------------------------9-7------|
D|------------------------------------------|
A|------------------------------------------|
E|------------------------------------------|

[Primeira Parte] 

 Bm
Meu pedaço de pecado
            A
De corpo colado, vem dançar comigo
  Em
Quero ser teu namorado
              G
Ficar do seu lado e falar no ouvido
     Bm
Que você é a mais bonita
              A
Um pedaço da vida de felicidade
 Em
Vem matar logo o desejo
             G
Faz esse vaqueiro feliz de verdade
 Bm
Vem matar logo eu de beijo
             A                     G  A
Enquanto te vejo acabo com a saudade

[Refrão] 

                   Bm         A
Tô querendo te beijar de novo
                  Em       G
O teu beijo me enlouqueceu
                     Bm         A
Tudo que a gente já fez foi pouco
                  Em
Quero sentir seu corpo no meu

 G                 Bm       A
Tô querendo te beijar de novo
               Em         G
O teu beijo me an, an, an
                     Bm         A
Tudo que a gente já fez foi pouco
                  Em          G
Quero sentir seu corpo no meu

[Solo] Bm  A  Em  G 
       Bm  A  Em  G

[Tab - Solo]

Parte 1 de 3
E|------------------------------------------|
B|-10--10-7-10-7-10-10/12-------------------|
G|-------------------------11-9-11----------|
D|------------------------------------------|
A|------------------------------------------|
E|------------------------------------------|

Parte 2 de 3
E|------------------------------------------|
B|-10--10-7-10-7-10-10/12-------------------|
G|-------------------------11-9-------------|
D|------------------------------12----------|
A|------------------------------------------|
E|------------------------------------------|

Parte 3 de 3
E|------------------------------------------|
B|-10--10-7-10-7-10-10/12-------------------|
G|-------------------------11---------------|
D|------------------------------------------|
A|------------------------------------------|
E|------------------------------------------|

[Primeira Parte] 

 Bm
Meu pedaço de pecado
            A
De corpo colado, vem dançar comigo
  Em
Quero ser teu namorado
              G
Ficar do seu lado e falar no ouvido
     Bm
Que você é a mais bonita
              A
Um pedaço da vida de felicidade
 Em
Vem matar logo o desejo
             G
Faz esse vaqueiro feliz de verdade
 Bm
Vem matar logo eu de beijo
             A                     G  A
Enquanto te vejo acabo com a saudade

[Refrão] 

                   Bm       A
Tô querendo te beijar de novo
                  Em       G
O teu beijo me enlouqueceu
                     Bm           A
Tudo que a gente já fez foi pouco
                  Em
Quero sentir seu corpo no meu

 G                 Bm       A
Tô querendo te beijar de novo
               Em         G
O teu beijo me an, an, an
                     Bm         A
Tudo que a gente já fez foi pouco
                  Em          G
Quero sentir seu corpo no meu

                   Bm       A
Eu querendo te beijar de novo
               Em         G
O teu beijo me an, an, an
                     Bm         A
Tudo que a gente já fez foi pouco
                  Em          G
Quero sentir seu corpo no meu

[Final] Bm  A  Em  G 
        Bm  A  Em  G
        Bm  A  Em  G
        Bm  A  Em  G  Bm

[Tab - Solo Final]

Parte 1 de 8
E|------------------------------------------|
B|-10--10-7-10-7-10-10/12-------------------|
G|-------------------------11-9-11----------|
D|------------------------------------------|
A|------------------------------------------|
E|------------------------------------------|

Parte 2 de 8
E|------------------------------------------|
B|-10--10-7-10-7-10-10/12-------------------|
G|-------------------------11-9-------------|
D|------------------------------12----------|
A|------------------------------------------|
E|------------------------------------------|

Parte 3 de 8
E|------------------------------------------|
B|-10--10-7-10-7-10-10/12-------------------|
G|-------------------------11-9-11----------|
D|------------------------------------------|
A|------------------------------------------|
E|------------------------------------------|

Parte 4 de 8
E|------------------------------------------|
B|-10--10-7-10-7-10-7-7--10-7-10-7----------|
G|---------------------------------9-7------|
D|------------------------------------------|
A|------------------------------------------|
E|------------------------------------------|

Parte 5 de 8
E|------------------------------------------|
B|-10--10-7-10-7-10-10/12-------------------|
G|-------------------------11-9-11----------|
D|------------------------------------------|
A|------------------------------------------|
E|------------------------------------------|

Parte 6 de 8
E|------------------------------------------|
B|-10--10-7-10-7-10-10/12-------------------|
G|-------------------------11-9-------------|
D|------------------------------12----------|
A|------------------------------------------|
E|------------------------------------------|

Parte 7 de 8
E|------------------------------------------|
B|-10--10-7-10-7-10-10/12-------------------|
G|-------------------------11-9-11----------|
D|------------------------------------------|
A|------------------------------------------|
E|------------------------------------------|

Parte 8 de 8
E|------------------------------------------|
B|-10--10-7-10-7-10-7-7--10-7-10-7----------|
G|---------------------------------9-7~\--4-|
D|------------------------------------------|
A|------------------------------------------|
E|------------------------------------------|
00:00 / 00:00
Outros vídeos desta música
Repetir
Outros vídeos desta música
Composição de João Gomes
Colaboração e revisão:
  • Victor Alves
  • Lucas Allyson
  • Peusantosporto
168.025 exibições
    • ½ Tom
    • Am
    • Bbm
    • Bm
    • Cm
    • C#m
    • Dm
    • Ebm
    • Em
    • Fm
    • F#m
    • Gm
    • G#m
  • Adicionar à lista

    0 comentários

    Ver todos os comentários

    Conseguiu tocar?

    19 Tocaram 1 Ainda não

    Grave um vídeo tocando Meu Pedaço de Pecado e nos envie!

    Entre para oCifra Club PRO

    Tenha acesso a benefícios exclusivos no App e no Site

    • Chega de anúncios

    • Prioridade de compra em lançamentos

    • Mais recursos no app do Afinador

    • Atendimento Prioritário

    • Descontos nos produtos Cifra Club

    • Ajude a produzir mais conteúdo

    00:00 / 00:00

    Cifra Club Pro

    Aproveite o Cifra Club com benefícios exclusivos e sem anúncios
    Cifra Club Pro
    Aproveite o Cifra Club com benefícios exclusivos e sem anúncios
    OK