Cifra Club

Final Feliz

Jorge Vercillo

Cifra: Principal
exibições 770.331
Tom: D
Intro 2x: D7M(9)  Bm7(11)  G7M  Gm6

Solo - Parte 1 de 2
E|-----9--12--10/12-------9--12--10/12------------------|
B|-10-----------------10--------------------------------|
G|-----6--9----7/9--------6--9----7/9-------------------|
D|-7------------------7---------------------------------|
A|------------------------------------------------------|
E|------------------------------------------------------|

Solo - Parte 2 de 2
E|-----10--14---12/14------10--14---12/14---------------|
B|-12------------------11-------------------------------|
G|-----7---11----9/11------7---11----9/11---------------|
D|-9-------------------8--------------------------------|
A|------------------------------------------------------|
E|------------------------------------------------------|

Base:
Parte 1 de 4
    D7M(9)
E|--------------------------------------------|
B|-5--5----5-------5--5--5--------------------|
G|-6--6----6-------6--6--6--------------------|
D|-4--4----4--x--x----4--4-x--x---------------|
A|-5--x--5----x----5--x----x------------------|
E|----x-------x-------x----x------------------|

Parte 2 de 4
    Bm7(11)
E|--------------------------------------------|
B|-5--5----5-------5--5--5--------------------|
G|-7--7----7-------7--7--7--------------------|
D|-7--7----7--x--x----7--7-x--x---------------|
A|----x-------x-------x----x------------------|
E|-7--x--7----x----7--x----x------------------|

Parte 3 de 4
    G7M
E|--------------------------------------------|
B|-3--3----3-------3--3--3--------------------|
G|-4--4----4-------4--4--4--------------------|
D|-4--4----4--x--x----4--4-x--x---------------|
A|----x-------x-------x----x------------------|
E|-3--x--3----x----3--x----x------------------|

Parte 4 de 4
    Gm6
E|--------------------------------------------|
B|-3--3----3-------3--3--3--------------------|
G|-3--3----3-------3--3--3--------------------|
D|-2--2----2--x--x----2--2-x--x---------------|
A|----x-------x-------x----x------------------|
E|-3--x--3----x----3--x----x------------------|


Primeira Parte:

D7M                 A/C#
    Chega de fingir
Bm7                       Bm7/A
Eu não tenho nada a esconder
  G7M               Gm6
Agora é pra valer, haja o que houver
    D7M          A/C#
Não tô nem aí
    Bm7                     Bm7/A
Eu não tô nem aqui pro que dizem
    G7M              Gm6
Eu quero é ser feliz e viver pra ti

Primeira Parte - Parte 1 de 4
    D7M                A/C#
E|--------------------------------------------|
B|-7--7----7-------7--2-----------------------|
G|-6--6----6-------6--2-----------------------|
D|-7--7----7--x--x----2-----------------------|
A|-5--x--5----x----5--4-----------------------|
E|----x-------x-------------------------------|

Primeira Parte - Parte 2 de 4
    Bm7                Bm7/A
E|--------------------------------------------|
B|-3--3----3-------3--3-----------------------|
G|-2--2----2-------2--2-----------------------|
D|-4--4----4--x--x----4-----------------------|
A|-2--x--2----x----2--0-----------------------|
E|----x-------x-------------------------------|

Primeira Parte - Parte 3 de 4
    G7M
E|--------------------------------------------|
B|-3--3----3-------3--3--3--------------------|
G|-4--4----4-------4--4--4--------------------|
D|-4--4----4--x--x----4--4-x--x---------------|
A|----x-------x-------x----x------------------|
E|-3--x--3----x----3--x----x------------------|

Primeira Parte - Parte 4 de 4
    Gm6
E|--------------------------------------------|
B|-3--3----3-------3--3--3--------------------|
G|-3--3----3-------3--3--3--------------------|
D|-2--2----2--x--x----2--2-x--x---------------|
A|----x-------x-------x----x------------------|
E|-3--x--3----x----3--x----x------------------|

Segunda Parte:

 D7M                 A/C# Bm7  Bm7/A
Pode me abraçar sem me___do
 G7M               Bm/F#
Pode encostar tua mão 
    F  B7(b9)  B7
Na minha

Segunda Parte - Parte 1 de 2
    G7M      Bm/F#
E|--------------------------------------------|
B|-3--3--3--3--3--3---------------------------|
G|-4--4--4--4--4--4---------------------------|
D|-4--4--4--4--4--4---------------------------|
A|----x--------x------------------------------|
E|-3--x-----2--x------------------------------|

Segunda Parte - Parte 2 de 2
    F       B7(b9)     B7
E|--------------------------------------------|
B|-1--1----1-------1--0--0--------------------|
G|-2--2----2-------2--2--2--------------------|
D|-3--3----1--x--x-1--1--1-x--x---------------|
A|----x----2--x----2--2----x------------------|
E|-1--x--1----x-------x----x------------------|


Refrão:

    Em7(9)
Meu amor
         A7(13)  G/A
Deixa o tem__po se 
      F#m7(11)  B7(9+)  B7(b9)  B7
Arrastar sem   fim
      Em7(9)
Meu amor
        A7(13)  G/A
Não há mal  nenhum 
    F#m7(11) B7(9+) B7(b9) B7
Gostar    assim
         Em7(9)
Oh, meu bem
     A7(13) G/A
Acredite   no
   F#m7(11) B7(9+) B7(b9) B7
Final    feliz
      Em7(9)    Gm6
Meu amor, meu amor

Refrão - Parte 1 de 4
    Em7(9)
E|--------------------------------------------|
B|-7--7----7-------7--7-7-7-7-----------------|
G|-7--7----7-------7--7-7-7-7-----------------|
D|-5--5----5--x--x----5-5-5-5-----------------|
A|-7--7--7----x----7--7-7-7-7-----------------|
E|----x-------x-------------------------------|

Refrão - Parte 2 de 4
    A7(13)          G/A
E|--------------------------------------------|
B|-7--7----7-------3--3-3-3-3-----------------|
G|-6--6----6-------4--4-4-4-4-----------------|
D|-5--5----5--x--x-5--5-5-5-5-----------------|
A|----x-------x-------------------------------|
E|-5--x--5----x----5--5-5-5-5-----------------|

Refrão - Parte 3 de 4
    F#m7(11)
E|--------------------------------------------|
B|-0--0----0-------0--0-0-0-0-----------------|
G|-2--2----2-------2--2-2-2-2-----------------|
D|-2--2----2--x--x-2--2-2-2-2-----------------|
A|----x-------x-------------------------------|
E|-2--x--2----x----2--2-2-2-2-----------------|

Refrão - Parte 4 de 4
    B7(9+) B7(b9)       B7
E|--------------------------------------------|
B|-3------1----1-------0--0-0-0-0-------------|
G|-2------2----2-------2--2-2-2-2-------------|
D|-1------1----1--x--x----1-1-1-1-------------|
A|-2------2--2----x----2--2-2-2-2-------------|
E|--------x-------x---------------------------|

Repete Primeira Parte:

D7M                 A/C#
    Chega de fingir
Bm7                       Bm7/A
Eu não tenho nada a esconder
  G7M               Gm6
Agora é pra valer, haja o que houver
    D7M          A/C#
Não tô nem aí
    Bm7                     Bm7/A
Eu não tô nem aqui pro que dizem
    G7M              Gm6
Eu quero é ser feliz e viver pra ti

Repete Segunda Parte:
 D7M                 A/C# Bm7  Bm7/A
Pode me abraçar sem me___do
 G7M               Bm/F#
Pode encostar tua mão 
    F  B7(b9)  B7
Na minha

Repete Refrão:

    Em7(9)
Meu amor
         A7(13)  G/A
Deixa o tem__po se 
      F#m7(11)  B7(9+)  B7(b9)  B7
Arrastar sem   fim
      Em7(9)
Meu amor
        A7(13)  G/A
Não há mal  nenhum 
    F#m7(11) B7(9+) B7(b9) B7
Gostar    assim
         Em7(9)
Oh, meu bem
     A7(13) G/A
Acredite   no
   F#m7(11) B7(9+) B7(b9) B7
Final    feliz
      Em7(9)    Gm6
Meu amor, meu amor
Acordes para:
    Composição: Jorge VercilloColaboração e revisão:

    0 comentários

      mostrar mais comentários

      Conseguiu tocar?

      38tocaram1ainda não

      Grave um vídeo tocando Final Feliz e mande pra gente!

      00:00 / 00:00
      outros vídeos desta música
      repetirqualidadeautomática
      Outro vídeos desta música
        00:00 / 00:00
        automática
        Capítulos
        • Tocando a música
        • Dicas Iniciais / Equipamentos
        • Acordes da Introdução e Primeira Parte
        • Tocando Introdução e Primeira Parte
        • Introdução: Solo - Parte 1 de 2
        • Introdução: Solo - Parte 2 de 2
        • Introdução: Base - Parte 1 de 4
        • Introdução: Base - Parte 2 de 4
        • Introdução: Base - Parte 3 de 4
        • Introdução: Base - Parte 4 de 4
        • Primeira Parte - Parte 1 de 4
        • Primeira Parte - Parte 2 de 4
        • Primeira Parte - Parte 3 de 4
        • Primeira Parte - Parte 4 de 4
        • Acordes da Segunda Parte
        • Tocando a Segunda Parte
        • Segunda Parte - Parte 1 de 2
        • Segunda Parte - Parte 2 de 2
        • Acordes do Refrão
        • Tocando o Refrão
        • Refrão - Parte 1 de 4
        • Refrão - Parte 2 de 4
        • Refrão - Parte 3 de 4
        • Refrão - Parte 4 de 4
        • Encerramento
        • Ficha Técnica
        OK