Cifra Club

Aprenda

Only The Young

Journey

Tab de baixo: Principal
Riff 1:
G|-----------------|----------------|----------------|----------------|
D|-----------------|----------------|----------------|----------------|
A|-3-----3-3-----3-|3-----3-3-----3-|3-----3-3-----3-|3-----3---3/7-|
E|-----------------|----------------|----------------|----------------| 

G|-----------------|----------------|----------------|----------------|
D|-----------------|----------------|----------------|----------------|
A|-0-----0-0-----0-|0-----0---0-----|2-----2-2-----2-|2-----2---2-----|
E|-----------------|----------------|----------------|----------------|

Riff 2:
G|-----------------|----------------|----------------|----------------|
D|-----------------|----------------|----------------|4---5---7-5-4---|
A|-5-----5-5-----5-|5-----5-5-----5-|5-----5-5-----5-|--5---5-------5-|
E|-----------------|----------5-7---|----------------|----------------|

G|-----------------|----------------|----------------|----------------|
D|-----------------|----------------|----------------|----------------|
A|-3-----3-3-----3-|3-----3-3-----3-|3-----3-3-----3-|3-----3---3-----|
E|-----------------|----------3-5---|----------------|----------------|

G|-----------------|----------------|----------------|----------------|
D|-----------------|----------------|----------------|----------------|
A|-0-----0-0-----0-|0-----0-0-----0-|0-----0-0-----0-|0-----0-----2-3-|
E|-----------------|----------------|----------------|----------------|
 
G|-----------------|----------------|----------------|----------------|
D|-----------------|----------------|----------------|----------------|
A|-3-----3-3-----3-|3-----3-3-----3-|3-----3-3-----3-|3-----3---3---5-|
E|-----------------|----------------|----------------|----------------|

Riff 3:
G|-----------------|----------------|----------------|----------------|
D|-----------------|----------------|----------------|4---5---7-5-4---|
A|-5-----5-5-----5-|5-----5-5-----5-|5-----5-5-----5-|--5---5-------5-|
E|-----------------|----------5-7---|----------------|----------------|

G|-----------------|----------------|----------------|----------------|
D|-----------------|----------------|----------------|------------4---|
A|-3-----3-3-----3-|3-----3-3-----3-|3-----3-3-----3-|3-----3---5---5-|
E|-----------------|----------3-5---|----------------|----------------|

G|-----------------|----------------|----------------|----------------|
D|-----------------|----------------|----------------|----------------|
A|-0-----0-0-----0-|0-----0-0-----0-|0-----0-0-----0-|0-----0-----2-3-|
E|-----------------|----------------|----------------|----------------|
 
G|-----------------|----------------|----------------|----------------|
D|-----------------|----------------|----------------|----------5-----|
A|-3-----3-3-----3-|3-----3-3-----3-|3-----3-3-----3-|3-----3-5---5-3-|
E|-----------------|----------------|----------------|----------------|

Riff 4: 
G|-----------------|----------------|----------------|----------------|
D|-----------------|----------------|----------------|----------------|
A|-----------------|----------------|----------------|------3-0---0-2-|
E|-3-----3-3-----3-|3-----3-3-----3-|3-----3-3-----3-|3---------3-----|

G|-----------------|----------------|----------------|----------------|
D|-----------------|----------------|----------------|----------5-----|
A|-3-----3-3-----3-|3-----3-3-----3-|3-----3-3-----3-|3-----3-5---5-3-|
E|-----------------|----------3-5---|----------------|----------------|

G|-----------------|----------------|----------------|----------------|
D|-----------------|----------------|----------------|----------------|
A|-----------------|----------------|----------------|--------2---0-2-|
E|-3-----3-3-----3-|3-----3-3-----3-|3-----3-3-----3-|3-----3---3-----|

G|-----------------|----------------|----------------|----------------|
D|-----------------|------------5---|----------------|----------------|
A|-3-----3-3-----3-|3-----3---5---3-|2-----2-2-----2-|2-----2---2-----|
E|-----------------|----------------|----------------|----------------|

Riff 5: 
G|-----------------|----------------|
D|-----------------|----------------|
A|-5-----5-5-----5-|5-----5-5-----5-|
E|-----------------|----------5-7---|

Riff 6: 
G|-----------------|----------------|
D|-----------------|----------------|
A|-5-----5-5-----5-|5-----5---5-----|
E|-----------------|----------------|
Composição de J. Cain / N. Schon / S. Perry
Colaboração e revisão:
  • Mansinho Jr.
521 exibições

0 comentários

Mostrar mais comentários

Conseguiu tocar?

0 Tocaram 0 Ainda não

Grave um vídeo tocando Only The Young e mande pra gente!

00:00 / 00:00
outros vídeos desta música
repetir qualidade Automático
Outros vídeos desta música
00:00 / 00:00
Automático

Cifra Club Pro

Aproveite o Cifra Club com benefícios exclusivos e sem anúncios
7 dias grátis
Cifra Club Pro
Aproveite o Cifra Club com benefícios exclusivos e sem anúncios
7 dias grátis
OK