Cifra Club

Aprenda

Manual do Suicidio Parte 2.txt

k a m a i t a c h i

Cifra: Principal (violão e guitarra)
Tom: D (forma dos acordes no tom de C) Capotraste na 2ª casa
  G                         Em
Já menti pra você sobre a minha vida
  Am
Só pra ver se você me acolhia
  G                        Em
Então já inventei que eu sofria
  Am
Passei a sofrer e usar mirtazapina

 E4/C
Já fiquei internado só pra isso
   Dm
E meus amigos nem sabiam disso
 E4/C
Tenho "dead" cravado na pele
    Dm
Te mando a foto e você confere

 E4/C
Já cortei o rosto e nem sequer senti receio
Já tentei me matar e o que impediu foi esse medo
  Dm
O medo de deixar meu pai e minha mãe nesse tormento
Eu sei que eu sou um fracasso, mas eu juro que eu tento
 E4/C
Já pensei em voltar a fumar
E encher a porra do meu copo de cachaça
 Dm
Já pensei em rasgar minha garanta só gritando
"Mano só faço coisa errada"
 E4/C
Será porque já sofri com a mesma coisa
E me auto defendo pra não acontecer de novo
 Dm
Ou talvez não tomo vergonha na cara
E sem pensar arrasto todo mundo para o mesmo poço
 E4/C
Então eu levanto uma garrafa de tequila
E falo "um brinde"
"Por essa desgraça de vida"
 Dm
Reconheça os seus erros sempre mude e uma dica:
Não espere uma intervenção divina
 E4/C
Porque se você esperar uma intervenção divina
O tempo vai passar e você não fez mais nada
 Dm
Vai ta com o nariz cheio de cocaína
Todo branco e pensando em se jogar de uma sacada

 E4/C
Tu vai dizer "tudo bem?"
Eu vou dizer "to ótimo"
Tu vai dizer "tu ta mentindo?"
Mas isso "é obvio"
 Dm
Por isso não faço SadSong não é porque nem quero
O meu grande problema é
Que eu levo isso a sério
 E4/C
Eu canto eu choro
Eu me corto
Com cacos de vidros
Tu dança se diverte
Mesmo se sentindo um lixo
  Dm
Tento, desisto, e penso: "por que eu vivo nessa merda?"
Eu tenho sons melhores nem perde tempo com essa
 E4/C
Eu tô me segurando pra não cometer loucura
To segurando o choro desde o começo da música
 Dm
Mas já to estragando e levando ela pro poço
Desculpa já me perdi quantas vezes gravei de novo
 E4/C
Eu to jogando essas merdas no ventilador
Sou o protagonista do meu próprio filme de terror
 Dm
O assassino não é Jason e mesmo assim eu me escondo
Freddy vai ter pesadelo se ele invadir meu sonho
 E4/C
Porque lá vai ta escrito "Manual do Suicídio"
E assim que ele ler ele terá um grande delírio
 Dm
Essa é a realidade pra quem vive o que eu vivo
Qualquer dia eu pego uma câmera e me mato ao vivo

 E4/C
Madrugada eu caminho
Madrugada eu caminho
 Dm
Madrugada eu caminho
Madrugada eu caminho
 E4/C
Madrugada eu caminho
Madrugada eu caminho
 Dm
Madrugada eu caminho
Madrugada eu caminho

( E4/C )

[Primeira Parte]

E|--------------------------------------|
B|-------0----0----0--------0----0----0-|
G|-------1----1----1--------1----1----1-|
D|--------------------------------------|
A|--------------------------------------|
E|-0---0----0----0----0---0----0----0---|

[Segunda Parte]


E|--------------------------------------|
B|--------------------------------------|
G|-------4----4----4--------4----4----4-|
D|-------4----4----4--------4----4----4-|
A|-6---6----6----6----6---6----6----6---|
E|--------------------------------------|

[Terceira Parte]

E|--------------------------------------|
B|--------------------------------------|
G|-------6----6----6--------6----6----6-|
D|-------6----6----6--------6----6----6-|
A|--------------------------------------|
E|-4---4----4----4----4---4----4----4---|

[Quarta Parte]

E|-----------------2--------------------|
B|-------2----2----2--------2----2----2-|
G|-------2----2----2--------2----2----2-|
D|--------------------------------------|
A|--------------------------------------|
E|-2---2----2----2----2---2----2----2---|

E|----------------|
B|-2--------------|
G|-2--------------|
D|-2--------------|
A|-2--------------|
E|-2--------------|

Eu vou
Sair essa noite
Vou sei lá quem sabe seguir a lua
Espero que ela me mostre belos lugares
Pra ter boas lembranças
Enquanto eu fecho os olhos e minha alma suma
Composição de kamaitachi
Colaboração e revisão:
  • Matheusql770
  • Mell Medeiros
27.552 exibições
    • ½ Tom
    • A
    • Bb
    • B
    • C
    • Db
    • D
    • Eb
    • E
    • F
    • F#
    • G
    • Ab
  • Adicionar à lista

    0 comentários

    Mostrar mais comentários

    Conseguiu tocar?

    35 Tocaram 15 Ainda não

    Grave um vídeo tocando Manual do Suicidio Parte 2.txt e mande pra gente!

    00:00 / 00:00
    outros vídeos desta música
    repetir qualidade Automático
    Outros vídeos desta música
    00:00 / 00:00
    Automático

    Cifra Club Pro

    Aproveite o Cifra Club com benefícios exclusivos e sem anúncios
    7 dias grátis
    Cifra Club Pro
    Aproveite o Cifra Club com benefícios exclusivos e sem anúncios
    7 dias grátis
    OK