Cifra Club

Lips Like Morphine

Kill Hannah

Cifra: Versão 4 (violão e guitarra)
tom: E
Album: Until There's Nothing Left Of Us

Tuning: E,A,D,G,B,e

b - bend string
r - release string
/ - slide down fret
\ - slide up fret
~ - let it ring


INTRO:
e|-------------------------------------------------------------------------------------------------------------------------|
B|-------------------------------------------------------------------------------------------------------------------------|
G|--6\4/-6-6-6-6-6-6-6---6---0-6~\4/-6-6-6-6-6-6-6---6---0-6~\4/-6-6-6-6-6-6-6---6---0-6~\4/-6-6-6-6-6-6-6---6---0-6~~~----|
D|--6\4/-6-6-6-6-6-6-6/7-6/7-6-6~\4/-6-6-6-6-6-6-6/7-6/7-6-6~\4/-6-6-6-6-6-6-6/7-6/7-6-6~\4/-6-6-6-6-6-6-6/7-6/7-6-6~~~----|
A|--4\2/-4-4-4-4-4-4-4---4---0-4~\2/-4-4-4-4-4-4-4---4---0-4~\2/-4-4-4-4-4-4-4---4---0-4~\2/-4-4-4-4-4-4-4---4---0-4~~~----|
E|-------------------------------------------------------------------------------------------------------------------------|
      ^
     this part goes really really fast and in sliding motion


VERSE:
     I want a girl with lips like morphine...
e|-----------------------------------------------------------------------------------|
B|-----------------------------------------------------------------------------------|
G|------------------------------------------2~----------------------------6~---------|
D|------------------------------------------2~--------------2~------------6~---------|
A|------------------------------------------0~--------------2~------------4~---------|
E|----------------------------------------------------------0~-----------------------|

     Knock me out every time they touch me...
e|-----------------------------------------------------------------------------------|
B|-----------------------------------------------------------------------------------|
G|------------------------------------------2~----------------------------6----------|
D|------------------------------------------2~--------------2~------------6----------|
A|------------------------------------------0~--------------2~------------4----------|
E|----------------------------------------------------------0~-----------------------|

    I wanna feel that kiss just...crush me....and break me down...........
e|----------------------------------------------------------------------------------------------|
B|----------------------------------------------------------------------------------------------|
G|--6-6-6-6-6-6-6-6-6-6-6-6-6-6-6-6-----4~--------------------2~-------------9999999999999999---|
D|--6-6-6-6-6-6-6-6-6-6-6-6-6-6-6-6-----4~--------------------2~--------------------------------|
A|--4-4-4-4-4-4-4-4-4-4-4-4-4-4-4-4-----2~--------------------0~--------------------------------|
E|----------------------------------------------------------------------------------------------|


CHORUS:
    Knock me out (Knock me out).......Knock me out (Knock me out)......
e|----------------------------------------------------------------------------------------------|
B|----------------------------------------------------------------------------------------------|
G|--6-6-6-6-6-6-6-6-6-6-6-6-6-6-6-6-6-9-9-9-9-9-9-9-9-9-9-9-9-9-9-9-9---------------------------|
D|--6-6-6-6-6-6-6-6-6-6-6-6-6-6-6-6-6-9-9-9-9-9-9-9-9-9-9-9-9-9-9-9-9---------------------------|
A|--4-4-4-4-4-4-4-4-4-4-4-4-4-4-4-4-4-7-7-7-7-7-7-7-7-7-7-7-7-7-7-7-7---------------------------|
E|----------------------------------------------------------------------------------------------|

    Coz I've waited for all my life....
e|-----------------------------------------------------------------------------------|
B|-----------------------------------------------------------------------------------|
G|----2-2-2-2-2-2-2-2-4-4-4-4-4-4-4-4-6-6-6-6-8-8-8-8-9-9-9-9-11-11-11-11------------|
D|----2-2-2-2-2-2-2-2-4-4-4-4-4-4-4-4-6-6-6-6-8-8-8-8-9-9-9-9-11-11-11-11------------|
A|----0-0-0-0-0-0-0-0-2-2-2-2-2-2-2-2-4-4-4-4-6-6-6-6-7-7-7-7--9--9--9--9------------|
E|-----------------------------------------------------------------------------------|

    To be here with you tonight.....
e|--------------------------------------------------------------------------------------------------------|
B|--------------------------------------------------------------------------------------------------------|
G|----2-2-2-2-2-2-2-2-4-4-4-4-4-4-4-4-6\4/-6-6-6-6-6-6-6---6---0-6~\4/-6-6-6-6-6-6-6---6---0-6~-----------|
D|----2-2-2-2-2-2-2-2-4-4-4-4-4-4-4-4-6\4/-6-6-6-6-6-6-6/7-6/7-6-6~\4/-6-6-6-6-6-6-6/7-6/7-6-6~-----------|
A|----0-0-0-0-0-0-0-0-2-2-2-2-2-2-2-2-4\2/-4-4-4-4-4-4-4---4---0-4~\2/-4-4-4-4-4-4-4---4---0-4~-----------|
E|--------------------------------------------------------------------------------------------------------|


VERSE:
     I want a girl with lips like morphine...
e|-----------------------------------------------------------------------------|
B|-----------------------------------------------------------------------------|
G|------------------------------------------2~-----------4-4-4------6~---------|
D|------------------------------------------2~-----------4-4-4------6~---------|
A|------------------------------------------0~-----------2-2-2------4~---------|
E|-----------------------------------------------------------------------------|

     Blow a kiss that leaves me gasping...
e|-----------------------------------------------------------------------------------|
B|-----------------------------------------------------------------------------------|
G|------------------------------------------2~--------------4~------------6----------|
D|------------------------------------------2~--------------4~------------6----------|
A|------------------------------------------0~--------------2~------------4----------|
E|-----------------------------------------------------------------------------------|

    I wanna feel that lighting...strike me....and burn me down...........
e|----------------------------------------------------------------------------------------------|
B|----------------------------------------------------------------------------------------------|
G|--6-6-6-6-6-6-6-6-6-6-6-6-6-6-6-6-----4~--------------------2~-------------9999999999999999---|
D|--6-6-6-6-6-6-6-6-6-6-6-6-6-6-6-6-----4~--------------------2~--------------------------------|
A|--4-4-4-4-4-4-4-4-4-4-4-4-4-4-4-4-----2~--------------------0~--------------------------------|
E|----------------------------------------------------------------------------------------------|


CHORUS:
    Knock me out (Knock me out).......Knock me out (Knock me out)......
e|----------------------------------------------------------------------------------------------|
B|----------------------------------------------------------------------------------------------|
G|--6-6-6-6-6-6-6-6-6-6-6-6-6-6-6-6-6-9-9-9-9-9-9-9-9-9-9-9-9-9-9-9-9---------------------------|
D|--6-6-6-6-6-6-6-6-6-6-6-6-6-6-6-6-6-9-9-9-9-9-9-9-9-9-9-9-9-9-9-9-9---------------------------|
A|--4-4-4-4-4-4-4-4-4-4-4-4-4-4-4-4-4-7-7-7-7-7-7-7-7-7-7-7-7-7-7-7-7---------------------------|
E|----------------------------------------------------------------------------------------------|

    Coz I've waited for all my life....
e|-----------------------------------------------------------------------------------|
B|-----------------------------------------------------------------------------------|
G|----2-2-2-2-2-2-2-2-4-4-4-4-4-4-4-4-6-6-6-6-8-8-8-8-9-9-9-9-11-11-11-11------------|
D|----2-2-2-2-2-2-2-2-4-4-4-4-4-4-4-4-6-6-6-6-8-8-8-8-9-9-9-9-11-11-11-11------------|
A|----0-0-0-0-0-0-0-0-2-2-2-2-2-2-2-2-4-4-4-4-6-6-6-6-7-7-7-7--9--9--9--9------------|
E|-----------------------------------------------------------------------------------|

    To be here with you tonight.....
e|-----------------------------------------------------------------------------------|
B|-----------------------------------------------------------------------------------|
G|----2-2-2-2-2-2-2-2-4-4-4-4-4-4-4-4-6-6-6-6-8-8-8-8-9-9-9-9-15-15-15-15------------|
D|----2-2-2-2-2-2-2-2-4-4-4-4-4-4-4-4-6-6-6-6-8-8-8-8-9-9-9-9-15-15-15-15------------|
A|----0-0-0-0-0-0-0-0-2-2-2-2-2-2-2-2-4-4-4-4-6-6-6-6-7-7-7-7-13-13-13-13------------|
E|-----------------------------------------------------------------------------------|

    Just put me on my path.......knock me out again
e|-----------------------------------------------------------------------------------|
B|-----------------------------------------------------------------------------------|
G|----2----2-2----2-4-4--4-4----4-4--4-4--4-4--4-4--4-4-6~~~-------------------------|
D|----2----2-2----2-4-4--4-4----4-4--4-4--4-4--4-4--4-4-6~~~-------------------------|
A|----0----0-0----0-2-2--2-2----2-2--2-2--2-2--2-2--2-2-4~~~-------------------------|
E|-----------------------------------------------------------------------------------|

    I wanna girl with lips like morphine (lips like morphine)
    Knock me out every time they touch me (knock me out when they touch me)
    
    I wanna girl with lips like...morphine(lips like morphine)...
    to knock me out....
e|-----------------------------------------------------------------------------------------------------16-16-16-16-16-16-16-16-16-16----|
B|--------------------------------------------------------------------------------------------------------------------------------------|
G|------------------------------------------------------------2----2-2----2-4-4--4-4----4-4--4-4----------------------------------------|
D|------------------------------------------------------------2----2-2----2-4-4--4-4----4-4--4-4----------------------------------------|
A|------------------------------------------------------------0----0-0----0-2-2--2-2----2-2--2-2----------------------------------------|
E|--------------------------------------------------------------------------------------------------------------------------------------|

SOLO:
e|-16-16-16-14-14-14-14-14-14-14-14-14-14-14-14-14-14-17-17-17-17-17-17-----12-----12-16/18\16-16-16-16-16-16-16-14/16\12-12-12-12-12-12-12-12-12-12-12-12-7-7-7-7-7-7-7-7---|
B|----------------------------------------------------------------------9/10---9/10------------------------------------------------------------------------------------------|
G|---------------------------------------------------------------------------------------------------------------------------------------------------------------------------|
D|---------------------------------------------------------------------------------------------------------------------------------------------------------------------------|
A|---------------------------------------------------------------------------------------------------------------------------------------------------------------------------|
E|---------------------------------------------------------------------------------------------------------------------------------------------------------------------------|

    See I've waited for all my life
e|-7-7-7-7-7-7-7-9-9-9-9-9-9-9-9-9-11-11-11-11-11-11-11-11-11-11-11-12~--12~--12~-----------------|
B|------------------------------------------------------------------------------------------------|
G|------------------------------------------------------------------------------------------------|
D|------------------------------------------------------------------------------------------------|
A|------------------------------------------------------------------------------------------------|
E|------------------------------------------------------------------------------------------------|
        To be here with you tonight...
        Just put on my path...knock me out again
e|--19~--19br-19br19br~-19br-19br19br~-------12-----11--16\14/16-16br16br16brb16r-16-16--12br12br12-16br16br-16-1614-14-16br-16-16-12br~-----|
B|---------------------------------------9/10---9/10-----------------------------------------------------------------------------------------|
G|-------------------------------------------------------------------------------------------------------------------------------------------|
D|-------------------------------------------------------------------------------------------------------------------------------------------|
A|-------------------------------------------------------------------------------------------------------------------------------------------|
E|-------------------------------------------------------------------------------------------------------------------------------------------|

Composição de Mat Devine
89 exibições
    • ½ Tom
    • A
    • Bb
    • B
    • C
    • Db
    • D
    • Eb
    • E
    • F
    • F#
    • G
    • Ab
  • Adicionar à lista

    0 comentários

    Ver todos os comentários

    Conseguiu tocar?

    0 Tocaram 0 Ainda não

    Grave um vídeo tocando Lips Like Morphine e nos envie!

    00:00 / 00:00
    Outros vídeos desta música
    Repetir Qualidade Automático
    Outros vídeos desta música
    00:00 / 00:00
    Automático

    Cifra Club Pro

    Aproveite o Cifra Club com benefícios exclusivos e sem anúncios
    Cifra Club Pro
    Aproveite o Cifra Club com benefícios exclusivos e sem anúncios
    OK