Cifra Club

Lips Like Morphine

Kill Hannah

Cifra: Versão 3 (violão e guitarra)
tom: E
I think this is right, but to all you guys wonderin how the real intro goes you start 
intro with a synth effect.

Tuning:drop d




GUITAR 1

*Intro   
e|---------------------------------------------|
B|---------------------------------------------|
G|---------------------------------------------|
D|--6-6-6-6-6-6-6-6-6h7-6-6h7-6-6-6------------|
A|--4-4-4-4-4-4-4-4-0---0-0---0-0-0------------|
D|---------------------------------------------|
 pm:    * * * * * *     *     * * *


*Verse                                                                  
e|--------------------------------------------------------------------------|
B|-------------------------------------------------------------repeat-------|
G|-6-6-6-6-6-6-6-------------------------6-6-6-6-6-6-6----------------------|
D|-6-6-6-6-6-6-6---7-7-7-7-7-7-7--2-2----6-6-6-6-6-6-6---7-7-7-7-7-7-7--2-2-|
A|-4-4-4-4-4-4-4---7-7-7-7-7-7-7--2-2----4-4-4-4-4-4-4---7-7-7-7-7-7-7--2-2-|
D|-----------------7-7-7-7-7-7-7--2-2--------------------7-7-7-7-7-7-7--2-2-|

e|--------------------------------------------------------------------------|
B|--------------------------------------------------------------------------|
G|--6-6-6-6-6-6-6-6-6-6-6-6--6-6-6-6-6-6-6----6-6-6-6-6-6-6-6-6-6-6-6-6-----|
D|--6-6-6-6-6-6-6-6-6-6-7-7--7-7-7-7-7-7-7----------------------------------|
A|--4-4-4-4-4-4-4-4-4-4-4-4--4-4-4-4-4-4-4----------------------------------|
D|--------------------------------------------------------------------------|
 pm:    * * * * * * * *      *


*Chorus
e|--------------------------------------------------------------------------|
B|--------------------------------------------------------------------------|
G|--66666666666666666666--99999999999999999999------------------------------|
D|--66666666666666666666--99999999999999999999--7-7-7-7-7-7-7--9-9-9-9-9-9-9|
A|--44444444444444444444--77777777777777777777--7-7-7-7-7-7-7--9-9-9-9-9-9-9|
D|----------------------------------------------7-7-7-7-7-7-7--9-9-9-9-9-9-9

e|--------------------------------------------------------------------------|
B|--------------------------------------------------------------------------|
G|--------------------------------------------------------------------------|
D|--13-13-13--14-14-14--16-16-16--7-7-7-7-7-7-7--9-9-9-9-9-9-9--------------|
A|--13-13-13--14-14-14--16-16-16--7-7-7-7-7-7-7--9-9-9-9-9-9-9--------------|
D|--13-13-13--14-14-14--16-16-16--7-7-7-7-7-7-7--9-9-9-9-9-9-9--------------|

*Solo
e|--------------------------------------------------------------------------|
B|--21-21-21-19-19-19-19-19-19-19-22-21-------------------21br-21-21--------|
G|------------------------------------------21--------18--------------------|
D|---------------------------------------18----19h18------------------------|
A|--------------------------------------------------------------------------|
D|--------------------------------------------------------------------------|

e|--------------------------------------------------------------------------|
B|--21-21-21-19-19-19-17-17-17-12-12-12-12-12-12-14-14-14-16-16-16-17-17----|
G|--------------------------------------------------------------------------|
D|--------------------------------------------------------------------------|
A|--------------------------------------------------------------------------|
D|--------------------------------------------------------------------------|

e|-----------19-19-19-------------------------------------------------------|
B|--17-17-17----------------------------------------21br21br21br------------|
G|------------------------------------21-------18---------------------------|
D|------------------------------18-19----19-18------------------------------|
A|--------------------------------------------------------------------------|
D|--------------------------------------------------------------------------|



GUITAR 2

*Intro   
e|---------------------------------------------|
B|---------------------------------------------|
G|--6~~~~~-------------------------------------|
D|--6~~~~~------------------(SYNTH)------------|
A|--4~~~~~-------------------------------------|
D|---------------------------------------------|
    

*Verse                                                                  x2
e|--------------------------------------------------------------------------|
B|-------------------------------------------------------------reapeat------|
G|-6-6-6-6-6-6-6-------------------------6-6-6-6-6-6-6----------------------|
D|-6-6-6-6-6-6-6---7-7-7-7-7-7-7--2-2----6-6-6-6-6-6-6---7-7-7-7-7-7-7--2-2-|
A|-4-4-4-4-4-4-4---7-7-7-7-7-7-7--2-2----4-4-4-4-4-4-4---7-7-7-7-7-7-7--2-2-|
D|-----------------7-7-7-7-7-7-7--2-2--------------------7-7-7-7-7-7-7--2-2-|

e|--------------------------------------------------------------------------|
B|--------------------------------------------------------------------------|
G|--6-6-6-6-6-6-6-6-6-6-6-6---6~~~~-6~~~------------------------------------|
D|--6-6-6-6-6-6-6-6-6-6-7-7---6~~~~-6~~~------------------------------------|
A|--4-4-4-4-4-4-4-4-4-4-4-4---4~~~~-4~~~--4-4-4-4-4-4-4-4-4-4-4-4-4---------|
D|--------------------------------------------------------------------------|
 pm:    * * * * * * * *      

*Chorus
e|--------------------------------------------------------------------------|
B|--------------------------------------------------------------------------|
G|--66666666666666666666--99999999999999999999------------------------------|
D|--66666666666666666666--99999999999999999999--7-7-7-7-7-7-7--9-9-9-9-9-9-9|
A|--44444444444444444444--77777777777777777777--7-7-7-7-7-7-7--9-9-9-9-9-9-9|
D|----------------------------------------------7-7-7-7-7-7-7--9-9-9-9-9-9-9|

e|--------------------------------------------------------------------------|
B|--------------------------------------------------------------------------|
G|--6-6-6-6--8-8-8-8--9-9-9-9-11111111--------------------------------------|
D|--x-x-x-x--x-x-x-x--x-x-x-x--x-x-x-x--7-7-7-7-7-7-7--9-9-9-9-9-9-9--------|
A|--4-4-4-4--6-6-6-6--7-7-7-7--9-9-9-9--7-7-7-7-7-7-7--9-9-9-9-9-9-9--------|
D|--------------------------------------7-7-7-7-7-7-7--9-9-9-9-9-9-9--------|



| r  release bend
| b  bend
| /  slide up
| \  slide down
| h  hammer-on
| p  pull-off
| ~  vibrato
| +  harmonic
| x  Mute note
|pm. Palm Mute
Composição de Mat Devine
119 exibições
    • ½ Tom
    • A
    • Bb
    • B
    • C
    • Db
    • D
    • Eb
    • E
    • F
    • F#
    • G
    • Ab
  • Adicionar à lista

    0 comentários

    Ver todos os comentários

    Conseguiu tocar?

    0 Tocaram 0 Ainda não

    Grave um vídeo tocando Lips Like Morphine e nos envie!

    00:00 / 00:00
    Outros vídeos desta música
    Repetir Qualidade Automático
    Outros vídeos desta música
    00:00 / 00:00
    Automático

    Cifra Club Pro

    Aproveite o Cifra Club com benefícios exclusivos e sem anúncios
    Cifra Club Pro
    Aproveite o Cifra Club com benefícios exclusivos e sem anúncios
    OK