Cifra Club

Lips Like Morphine

Kill Hannah

Cifra: Versão 2 (violão e guitarra)
tom: E
Lips like Morphine

Intro
E ---------------------------4-/-5---4-\-5---4-\-5------------------|
A ----4--4--4--4--4--4----6-/-7---6-\-7---6-\-7---------------------|
D ----6--6--6--6--6--6----6-/-7---6-\-7---6-\-7--------         X 4-|
G ----6--6--6--6--6--6----------------------------------------------|
B ------------------------------------------------------------------|
e  -----------------------------------------------------------------|
              .   .    .    .   .  (palm muted)

E -------------------------------------------------0---------------|
A-----4---------------------------------------0---2----------------|
D ----6---------------------------------------2---2----------------|
G ----6---------------------------------------2--------------------|
B -----------------------------------------------------------------|
e -----------------------------------------------------------------|

  I wanna girl with lips like morphine...
  Knock me out everytime they touch me..

E -----------------------------------------------------------------------------|
A ----4--------------------------2----------------0---------------------7------|
D ----6--------------------------4----------------2---------------------9------|
G ----6--------------------------4----------------2---------------------9------|
B -----------------------------------------------------------------------------|
e -----------------------------------------------------------------------------|

 I wanna feel that lightning  strike me, and bring me down (keep strumming the chords)

E --------------------------------------------------------------------------------|
A ----4----------------------------4---6--7---------------------------------------|
D ----6----------------------------6---8--9---------------------------------------|
G ----6----------------------------6---8--9---------------------------------------|
B --------------------------------------------------------------------------------|
e --------------------------------------------------------------------------------|

knock me out (knock me out)..knock me out (knock me out)..


E -----------------------------------------------------------------------------------|
A ----0---------------2-------------4---6--7--9--------------------------------------|
D ----2---------------4-------------6---8--9--11-------------------------------------|
G ----2---------------4-------------6---8--9--11-------------------------------------|
B -----------------------------------------------------------------------------------|
e -----------------------------------------------------------------------------------|

coz I’ve waited for all my life
to be here with you tonight

E -----------------------------------|
A ----0-------2----------------------|
D ----2-------4----------------------|
G ----2-------4----------------------|
B -----------------------------------|
e -----------------------------------|

knock me out again…

repeat riff 1 and so on..


Believer:Intro

E -----------------------------------------------------------------------------------|
A -----------------------------------------------------------------------------------|
D -------------------------------------------16--16---------------16--16-------------|
G --------------------14-14-16-16--------------------------------------14-14-16--16--|
B ---------15--15-------------------------------------14--14-------------------------|
e -----------------------------------------------------------------------------------|


this is my first tab..have mercy on me.
*
Composição de Mat Devine
196 exibições
    • ½ Tom
    • A
    • Bb
    • B
    • C
    • Db
    • D
    • Eb
    • E
    • F
    • F#
    • G
    • Ab
  • Adicionar à lista

    0 comentários

    Ver todos os comentários

    Conseguiu tocar?

    0 Tocaram 0 Ainda não

    Grave um vídeo tocando Lips Like Morphine e nos envie!

    00:00 / 00:00
    Outros vídeos desta música
    Repetir Qualidade Automático
    Outros vídeos desta música
    00:00 / 00:00
    Automático

    Cifra Club Pro

    Aproveite o Cifra Club com benefícios exclusivos e sem anúncios
    Cifra Club Pro
    Aproveite o Cifra Club com benefícios exclusivos e sem anúncios
    OK