Cifra Club

Aprenda

Radioactive

Kings Of Leon

Cifra: Completa (violão e guitarra)
tom: G
Pré-Verso:
E|-----------------------------------------------------|----------------------|
B|-----------------------------------------------------|----------------------|
G|-----------------------------------------------------|----------------------|
D|-----------------------------------------------------|----------------------|
A|-----------------------------------------------------|----------------------|
E|-5/-13--13-13-13-13-13-13-1313--13-13-13-13-13-13--5-|----------------------|

E|-17p13----15p13----17p13----15p13----17p13---------------------------------|
B|-------13-------13-------13-------13-------13------------------------------|
G|---------------------------------------------------------------------------|
D|---------------------------------------------------------------------------|
A|---------------------------------------------------------------------------|
E|---------------------------------------------------------------------------|
Verso:
E|--------------------|------------------------------------------------------|
B|--------------------|------------------------------------------------------|
G|-10-7---10---7----7-|-7------7---------------------------------------------|
D|---------------10---|---10-------10-7-7------------------------------------|
A|--------------------|------------------------------------------------------|
E|--------------------|------------------------------------------------------|
Refrão:
E|-------------------------------------------------------|--------------------|
B|-------------------------------------------------------|--------------------|
G|-------------------------------------------------------|--------------------|
D|-7/-15-15-15-15-15-15-15-15-15-15-15-15-15-15-15-15--7-|--------------------|
A|-7/-15-15-15-15-15-15-15-15-15-15-15-15-15-15-15-15--7-|--------------------|
E|-5/-13-13-13-13-13-13-13-13-13-13-13-13-13-13-13-13--5-|--------------------|

E|-13-13-13-13-|13-13-13-13-|13-13-13-13-|15-15-15-15------------------------|
B|-13-13-13-13-|13-13-13-13-|13-13-13-13-|13-13-13-13------------------------|
G|-------------|------------|------------|-----------------------------------|
D|-------------|------------|------------|-----------------------------------|
A|-------------|------------|------------|-----------------------------------|
E|-------------|------------|------------|-----------------------------------|
Pré-Veroe:
E|-----------------------------------------------------|----------------------|
B|-----------------------------------------------------|----------------------|
G|-----------------------------------------------------|----------------------|
D|-----------------------------------------------------|----------------------|
A|-----------------------------------------------------|----------------------|
E|-5/-13--13-13-13-13-13-13-1313--13-13-13-13-13-13--5-|----------------------|
Refrão:
E|-------------------------------------------------------|--------------------|
B|-------------------------------------------------------|--------------------|
G|-------------------------------------------------------|--------------------|
D|-7/-15-15-15-15-15-15-15-15-15-15-15-15-15-15-15-15--7-|--------------------|
A|-7/-15-15-15-15-15-15-15-15-15-15-15-15-15-15-15-15--7-|--------------------|
E|-5/-13-13-13-13-13-13-13-13-13-13-13-13-13-13-13-13--5-|--------------------|
Composição de Caleb Followill / Jared Followill / Matthew Followill / Nathan Followill
Colaboração e revisão:
  • Bruno Santana
2.151 exibições
    • ½ Tom
    • A
    • Bb
    • B
    • C
    • Db
    • D
    • Eb
    • E
    • F
    • F#
    • G
    • Ab
  • Adicionar à lista

    0 comentários

    Ver todos os comentários

    Conseguiu tocar?

    2 Tocaram 0 Ainda não

    Grave um vídeo tocando Radioactive e nos envie!

    00:00 / 00:00
    Outros vídeos desta música
    Repetir Qualidade Automático
    Outros vídeos desta música
    00:00 / 00:00
    Automático

    Cifra Club Pro

    Aproveite o Cifra Club com benefícios exclusivos e sem anúncios
    Cifra Club Pro
    Aproveite o Cifra Club com benefícios exclusivos e sem anúncios
    OK