Cifra Club

Aprenda

Radioactive

Kings Of Leon

Tab de baixo: Principal
Pre-Verse:
G|---------------------------------------------------------------------------|
D|---------------------------------------------------------------------------|
A|-5-/12---10---8------(8/)12---10---8--------10\----------------------------|
E|---------------------------------------------------------------------------|

The 8 sliding up into the 12 in parentheses happens the second time the overall
pre-verse happens (so after the first chorus).

And the 10 with a slide down, slides down into the verse.
Verse:
G|---------------------------------------------------------------------------|
D|---------------------------------------------------------------------------|
A|-5-5-5-5-5-5-5-5-5-5-5-5-5-5-5-5-8-8-8-8-8-8-8-8-8-8-8-8-8-8-8-8-----------|
E|---------------------------------------------------------------------------|

Chorus:
G|---------------------------------------------------------------------------|
D|---------------------------------------------------------------------------|
A|---------------0-3-3-3-3-3-3-3-5---------------3-5-5-5-5-5-5-5-0-----------|
E|-1-1-1-1-1-1-1-------------------3-3-3-3-3-3-3-----------------------------|

G|---------------------------------------------------------------------------|
D|-------------------------------3-5-5-5-5-5-5-5-7---------------------------|
A|---------------0-3-3-3-3-3-3-3-------------------5-5-5-5-5-5-5-0-----------|
E|-1-1-1-1-1-1-1-------------------------------------------------------------|


Verse Before The Hail Mary Chorus:

G|-----------------------------------------------------------------|
D|-----------------------------------------------------------------|
A|-5-5-5-5-5-5-5-5-5-5-5-5-5-5-5-5-8-8-8-8-8-8-8-8-8-8-8-8-8-5-----|
E|-------------------------------------------------------------8-5-|


Chorus During Latter Half of Hail Mary Chorus:

G|------------------------------------------------------------------|
D|-----------------------------------------------3-----------3------|
A|---------------0-3-3-3-3-3-3-3-5-------------35--5-5-5-3-35--5-0--|
E|-1-1-1-1-1-1-1-------------------3-3-3-3-3-3----------------------|

G|------------------------------------------------------------------|
D|-------------------------------3-5-5-5-5-5-5-5-7-------------10\--|
A|---------------0-3-3-3-3-3-3-3-------------------5-5-5-5-5-5------|
E|-1-1-1-1-1-1-1----------------------------------------------------|
Composição de Caleb Followill / Jared Followill / Matthew Followill / Nathan Followill
Colaboração e revisão:
  • Vanna
154 exibições

0 comentários

Ver todos os comentários

Conseguiu tocar?

0 Tocaram 0 Ainda não

Grave um vídeo tocando Radioactive e nos envie!

00:00 / 00:00
Outros vídeos desta música
Repetir Qualidade Automático
Outros vídeos desta música
00:00 / 00:00
Automático

Cifra Club Pro

Aproveite o Cifra Club com benefícios exclusivos e sem anúncios
Cifra Club Pro
Aproveite o Cifra Club com benefícios exclusivos e sem anúncios
OK