Cifra Club

Aprenda

A Cruz Vazia

Kleber Lucas

Cifra: Solo (violão e guitarra)
tom: F#
E|---------------------------------------------------------------------------------------------|
B|---------------------------------------------------------------------------------------------|
G|---16----------------------------------------------------------------------------------------|
D|------15----------------15-13----------------------------------------------------------------|
A|---------14-14b16-16r14----------/14----14----14----------14---/14----14----14----------16---|
E|-------------------------------------14----16----16/18-16----------14----16----16/18-16------|

E|---------------------------------------------------------------------------------------------|
B|---------------------------------------------------------------------------------------------|
G|------------------------------------15----15-----------------------------------15----15------|
D|------------------15----13----11-----------------------------15----13----11------------------|
A|---16-14-16-12-16----16----16----16----16-----16-14-16-12-16----16----16----16----16---------|
E|---------------------------------------------------------------------------------------------|

E|-------------------------------------------------------------------------------------|
B|-------------------------------------------------------------------------------------|
G|-------------------------------------------------------------------------------------|
D|------------------------------------15----13---16b18r16--13----------11-10-8-11-8----|
A|------------------------12----10------------------------------9-11-9-----------------|
E|---16-14-16-12-16-11-16----16----16----16--------------------------------------------|

Colaboração e revisão:
  • Filipe Gatti
950 exibições
    • ½ Tom
    • A
    • Bb
    • B
    • C
    • Db
    • D
    • Eb
    • E
    • F
    • F#
    • G
    • Ab
  • Adicionar à lista

    0 comentários

    Ver todos os comentários
    00:00 / 00:00
    outros vídeos desta música
    repetir qualidade Automático
    Outros vídeos desta música
    00:00 / 00:00
    Automático

    Cifra Club Pro

    Aproveite o Cifra Club com benefícios exclusivos e sem anúncios
    Cifra Club Pro
    Aproveite o Cifra Club com benefícios exclusivos e sem anúncios
    OK