Cifra Club

Aprenda

Eu Juro

Leandro & Leonardo

Cifra: Versão 4 (violão e guitarra)
tom: A
Intro: A  F#m  C#m  D/E  E7

 A         D/F#  E/G#   A
Eu vejo a luz do teu olhar
           D    E    F#m 
Como uma noite de luar 
            D            D/E  E7        
Luz que me guia onde eu for 
   A         D/F#  E/G#  A
Você, meu motivo pra sorrir
           D/F# E/G#  F#m 
Caminho certo pra seguir 
          A/E
Saiba que é só teu
B/D#             D/E   E7 
Meu verdadeiro amor 
    A             F#m 
Eu juro, por mim mesmo,
                    C#m 
Por Deus, por meus pais
         D/E   E7 
Vou te amar 
    A              F#m               C#m         
Eu juro, que esse amor não acaba jamais 
         D   E
Vou te amar 
   Bm              D/E      E7 
É tanto querer, é tanta paixão
   Bm              D/E      E7    
Te amo do fundo do meu coração
    A     F#m  C#m  D/E  E7   
Eu juro 
 A       D/F# E/G# A    
Um homem e uma mulher
            D     E    F#m 
Juntos pro que der e vier 
        D              D/E  E7  
A meia luz, a dois, a sós 
   A        D/F# E/G#  A        
Então, a gente vai sonhar 
        D/F# E/G# F#m 
E conseguir realizar 
             A/E
Um mundo de amor sem fim 
  B/D#                D/E  E7 
Porque só depende de nós
    A             F#m 
Eu juro, por mim mesmo,
                    C#m 
Por Deus, por meus pais
         D/E   E7 
Vou te amar 
    A              F#m               C#m         
Eu juro, que esse amor não acaba jamais 
         D   E
Vou te amar 
   Bm              D/E      E7 
É tanto querer, é tanta paixão
   Bm              D/E      E7    
Te amo do fundo do meu coração


e|---------------------------------------------------------------------------11h13-|
B|---7/9-9~~\-6h7-7h9-7-6--------------------------------------------------14------|
G|------------------------8/10~-10\8p6-------------------------------10b-13--------|   
D|--6---------------------------------8/10-6-6h8-6\3-4-6-6/8-6\/11-11--------------|
A|----------------------------------------------8----------------------------------|
E|---------------------------------------------------------------------------------|

e|--14-14--16-14-13------------------11------------------16/18-18-18pbr-16^^-16~~--|
B|--------x--------16bh-16r-p14-11/13--13\11p9--9\-----14--------------------------|
G|-------x------------------------------------10--13/15----------------------------|   
D|---------------------------------------------------------------------------------|
A|---------------------------------------------------------------------------------|
E|---------------------------------------------------------------------------------|
Composição de Demian / Frank Meyers / Gary Baker
Colaboração e revisão:
  • Alexandre
31.109 exibições
  • Simplificar cifra
    • ½ Tom
    • A
    • Bb
    • B
    • C
    • Db
    • D
    • Eb
    • E
    • F
    • F#
    • G
    • Ab
  • Adicionar à lista

    0 comentários

    Ver todos os comentários
    00:00 / 00:00
    Outros vídeos desta música
    Repetir Qualidade Automático
    Outros vídeos desta música
    00:00 / 00:00
    Automático

    Cifra Club Pro

    Aproveite o Cifra Club com benefícios exclusivos e sem anúncios
    Cifra Club Pro
    Aproveite o Cifra Club com benefícios exclusivos e sem anúncios
    OK