Cifra Club

Aprenda

Andrea Doria

Legião Urbana

Cifra: Versão 3 (violão e guitarra)
tom: F
Intro - Dm Em7 A9 (D9) Bb (D9) G/A  A/B  G/A  A/B

violão:
     Dm      Em7 A9   D
E|-5------------------------------------------|
B|-6--------3--0------------------------------|
G|-7--6-5~--0--2------------------------------|
D|-7--------2--2------------------------------|
A|-5----------------5-5-5-5-5-5-5-5-5-5-5...--|
E|--------------------------------------------|
guitarra:
     D
E|--------------------------------|
B|---3-------3-----3-3-------0----|
G|-2---2---2---2---2---2---2---2--|
D|-----------------0-------2------|
A|--------------------------------|
E|--------------------------------|

(COMEÇO)
     D                                    D
E|------------------------------------|---------------------------------0---|
B|-----3---------3---------3--------0-|-----3---------3---------3---------3-|
G|-0h2---2---0h2---2---0h2---2--2----2|-0h2---2---0h2---2---0h2---2---2-----|
D|------------------------------------|-------------------------------------|
A|------------------------------------|-------------------------------------|
E|------------------------------------|-------------------------------------|

                                                 II
     D                                              Bb
E|----------------------------------3-----3----|---------------6----6----6...-|
B|-----3---------3---------3----------3-----3--|--3---------------------------|
G|-0h2---2---0h2---2---0h2---2-2--------2-----2|--3----------7----7----7...---|
D|---------------------------------------------|--3---------------------------|
A|---------------------------------------------|----1-------------------------|
E|---------------------------------------------|------------------------------|

violão:: (faça essa parte onde está marcado II )
     Bb
E|-------------------------------|
B|-------------------------------|
G|-------------------------------|
D|-------------------------------|
A|-1-1-1-1-1-1-1-1-1-1-1-1-1-1-1-|
E|-------------------------------|
guitarra:
     D
E|--------------------------------0-----|
B|-----3---------3---------3--------3---|
G|-0h2---2---0h2---2---0h2------------0-|
D|--------------------------------------|
A|--------------------------------------|
E|--------------------------------------|

violão:(essa parte é seguindo os acordes da guitarra)
    G/A             A/B             G/A          A/B
E|-5--5-------5-------7---7---7----5--5-5--5-5--7--7-7-7-7-7-|
B|-3----3--3----3--5----6---6---6--3--3-3--3-3--5--5-5-5-5-5-|
G|-4-------4-------6---------------4--4-4--4-4--6--6-6-6-6-6-|
D|-----------------------------------------------------------|
A|-----------------------------------------------------------|
E|-----------------------------------------------------------|

guitarra:
    G/A               A/B                   G/A                A/B
E|-----------------------------------------------------------------------------|
B|-3--3----3---3-------5--5--------5---------3--3-3--3--3-3-----5--5-5--5--5-5-|
G|-4----4--4-----4-4s6-6-----6--6-----6--6s4-4--4-4--4--4-4-4s6-6--6-6--6--6-6-|
D|-5-------5-------5s7-7--------7--------7s5-5--5-5--5--5-5-5s7-7--7-7--7--7-7-|
A|-----------------------------------------------------------------------------|
E|-----------------------------------------------------------------------------|


Riff 1
     Dm                        Em      Am
E|------------------------------------------|
B|-----6---6---6---6---6-----5--6-5----6-5--|
G|------------------------------------------|
D|-7-----7---7---7---7---7-----------7------|
A|------------------------------------------|
E|------------------------------------------|


Riff 1
    Dm                      Em7       Am
Às vezes parecia que, de tanto acreditar
    Dm                     Em7   Am
Em tudo que achávamos tão certo,
    Dm                      Em7          Am
Teríamos o mundo inteiro e até um pouco mais:
   Dm                    Em7  Am
Faríamos floresta do deserto
Bb                Gm      C
E diamantes de pedaços de vidro.
     F
Mas percebo agora
       Am
Que o teu sorriso
      Dm
Vem diferente,
 Bb         F/A      Gm  C
Quase parecendo te ferir.

Riff 2
E|------------------------|   |----------------------|
B|-3/5-5------------------|   |-3/5-5----6---5---6-5-|
G|-3/5-5----5---5---7-5---|3x |-3/5-5--5---5---5-----|
D|--------7---7--7------7-|   |----------------------|
A|------------------------|   |----------------------|
E|------------------------|   |----------------------|

Riff 3
E|------------------------|   |--------------3-----3-----|
B|-3/5-5------------------|   |-3/5-5----6-----6-----6---|
G|-3/5-5----5---5---7-5---|3x |-3/5-5--5---5-----5-----5-|
D|--------7---7--7------7-|   |--------------------------|
A|------------------------|   |--------------------------|
E|------------------------|   |--------------------------|

Riff 2
F               Am
Não queria te ver assim -
          Bb             C
Quero a tua força como era antes.

Riff 3
F                Am
O que tens é só teu
           Bb
E de nada vale fugir
           C
E não sentir mais nada.

Riff 1
    Dm                    Em7       Am
Às vezes parecia que era só improvisar
     Dm                          Em7   Am
E o mundo então seria um livro aberto,
 Dm                         Em7         Am
Até chegar o dia em que tentamos ter demais,
    Dm                          Em7 Am
Vendendo fácil o que não tinha preço.
Bb          F/A      Gm      C
Eu sei - é tudo sem sentido.
F                      Am
Quero ter alguém com quem conversar,
    Dm        Bb     F/A          Gm
Alguém que depois não use o que eu disse
        C
Contra mim.

Riff 2
 F
Nada mais vai me ferir.
        Am
É que já me acostumei
         Bb
Com a estrada errada que eu segui
          C
E com a minha própria lei.

Riff 3
         F
Tenho o que ficou
          Am
E tenho sorte até demais,
      Bb               C
Como sei que tens também


[Repete a parte da intro onde estar escrito (COMEÇO)]

FIM
E|----------------------------------------------------|
B|-5--3---5--3--5-6--5--6--5--6--6--5--5s3-3--5--3--5-|
G|----------------------------------------------------|
D|----------------------------------------------------|
A|----------------------------------------------------|
E|----------------------------------------------------|

E|----------------------------------------------------10-|
B|-3--3--3--5/6--6--6--6--8--6--5--3--3--3--3--3--3---10-|
G|----------------------------------------------------10-|
D|-------------------------------------------------------|
A|-------------------------------------------------------|
E|-------------------------------------------------------|
Composição de Dado Villa-Lobos / Marcelo Bonfá / Renato Russo
Colaboração e revisão:
  • daniel fernandes
  • Paulo Rocha
  • kerton Souza
96.150 exibições
  • Simplificar cifra
    • ½ Tom
    • A
    • Bb
    • B
    • C
    • Db
    • D
    • Eb
    • E
    • F
    • F#
    • G
    • Ab
  • Adicionar à lista

    0 comentários

    Ver todos os comentários
    00:00 / 00:00
    outros vídeos desta música
    repetir qualidade Automático
    Outros vídeos desta música
    00:00 / 00:00
    Automático

    Cifra Club Pro

    Aproveite o Cifra Club com benefícios exclusivos e sem anúncios
    Cifra Club Pro
    Aproveite o Cifra Club com benefícios exclusivos e sem anúncios
    OK