Cifra Club

Aprenda

Tempo Perdido

Legião Urbana

Tab de baixo: Versão 2
Já pensou em usar uma coleção de roupas do Cifra Club? Responda as perguntas abaixo e nos ajude nessa missão! →
TODOS OS DIAS
G|-------|------------------------------------------------|
D|-------|------------------------------------------------|
A|-------|-3--3-3--3-3-3-3--3-2--0--0-0--0-0-0-0--0-3-3---|
E|---0---|------------------------------------------------|
                                                                x6
G|--------------------------------------------------------|
D|--------------------------------------------------------|
A|-2--2-2--2-2-2-2--2-2—-2--------------------------------|
E|--------------------------0--0-0--0-0-0-0--0-0--0-0-0---|

E TÃO SERIO
G|----------------------------------------------------|
D|----------------0h2-0-------------------------------|
A|-3--3-3--3-3-3—----------3-3--3-3--3-3-3-3--3-3-3---|
E|----------------------------------------------------|

SELVAGEM
G|----------------------------------------------|    |-----------------|
D|----------------------------------------------|    |-----------------|
A|-2-2-2-2-2-2-2-2------------------------------|(x2)|-2-2-2-2-2-2-2-2-|
E|------------------0--0-0--0-0-0-0--0-0--0-0-0-|    |-----------------|

SOLO
G|----------------------------|
D|----------------------------|
A|-------2-2-2----------------|      (até o solo acabar)
E|-0-0-0----------------------|

VEJA O SOL
G|------------------------------------------------|
D|------------------------------------------------|
A|-3--3-3--3-3-3-3--3-2--0--0-0--0-0-0-0--0-3-3---|
E|------------------------------------------------|
                                                                X2
G|--------------------------------------------------------|
D|--------------------------------------------------------|
A|-2--2-2--2-2-2-2--2-2—-2--------------------------------|
E|--------------------------0--0-0--0-0-0-0--0-0--0-0-0---|

ENTÃO ME ABRAÇA FORTE
G|----------------------------------------------------|
D|----------------0h2-0-------------------------------|
A|-3--3-3--3-3-3—----------3-3--3-3--3-3-3-3--3-3-3---|
E|----------------------------------------------------|

ME DIZ MAIS UMA VEZ
G|--------------------------------------------------------|
D|--------------------------------------------------------|
A|-2--2-2--2-2-2-2--2-2—-2--------------------------------|
E|--------------------------0--0-0--0-0-0-0--0-0--0-0-0---|

DISTANTES DE TUDO
G|------------------------------------------------|
D|------------------------------------------------|
A|-3--3-3--3-3-3-3--3-2--0--0-0--0-0-0-0--0-3-3---|
E|------------------------------------------------|


TEMOS NOSSO PRÓPRIO TEMPO
G|----------------------------------------------|
D|----------------------------------------------|
A|-2-2-2-2-2-2-2-2------------------------------|     x3
E|------------------0--0-0--0-0-0-0--0-0--0-0-0-|

NÃO TENHO MEDO
G|------------------------------------------------|
D|------------------------------------------------|
A|-3--3-3--3-3-3-3--3-2--0--0-0--0-0-0-0--0-3-3---|
E|------------------------------------------------|
                                                                
G|--------------------------------------------------------|
D|--------------------------------------------------------|
A|-2--2-2--2-2-2-2--2-2—-2--------------------------------|
E|--------------------------0--0-0--0-0-0-0--0-0--0-0-0---|

ACESAS
G|------------------------------------------------|
D|------------------------------------------------|
A|-3--3-3--3-3-3-3--3-2--0--0-0--0-0-0-0--0-3-3---|
E|------------------------------------------------|

AGORA
G|----------------------------------------------|
D|----------------------------------------------|
A|-2-2-2-2-2-2-2-2------------------------------|
E|------------------0--0-0--0-0-0-0--0-0--0-0-0-|

O QUE FOI ESCONDIDO
G|----------------------------------------------------|
D|----------------0h2-0-------------------------------|
A|-3--3-3--3-3-3—----------3-3--3-3--3-3-3-3--3-3-3---|
E|----------------------------------------------------|

E O QUE FOI PROMETIDO
G|--------------------------------------------------------|
D|--------------------------------------------------------|
A|-2--2-2--2-2-2-2--2-2—-2--------------------------------|
E|--------------------------0--0-0--0-0-0-0--0-0--0-0-0---|

NEM FOI TEMPO PERDIDO
G|----------------------------------------------------|
D|----------------0h2-0-------------------------------|
A|-3--3-3--3-3-3—----------3-3--3-3--3-3-3-3--3-3-3---|
E|----------------------------------------------------|

SOMOS TÃO JOVENS
G|----------------------------------------------|    |-----------------|
D|----------------------------------------------|    |-----------------|
A|-2-2-2-2-2-2-2-2------------------------------|(x2)|-2-2-2-2-2-2-2-2-|
E|------------------0--0-0--0-0-0-0--0-0--0-0-0-|    |-----------------|

FIM
G|----------------------------|
D|----------------------------|
A|-------2-2-2----------------|      (até acabar a música)
E|-0-0-0----------------------|
Composição de Renato Russo
Colaboração e revisão:
  • Vitor Franco
  • Erick Ramos
6.643 exibições

0 comentários

Ver todos os comentários
00:00 / 00:00
Outros vídeos desta música
Repetir Qualidade Automático
Outros vídeos desta música
00:00 / 00:00
Automático

Cifra Club Pro

Aproveite o Cifra Club com benefícios exclusivos e sem anúncios
Cifra Club Pro
Aproveite o Cifra Club com benefícios exclusivos e sem anúncios
OK