Cifra Club

Tempo Perdido

Legião Urbana

Tab de baixo: Versão 2
exibições 5.310
TODOS OS DIAS
G|-------|------------------------------------------------|
D|-------|------------------------------------------------|
A|-------|-3--3-3--3-3-3-3--3-2--0--0-0--0-0-0-0--0-3-3---|
E|---0---|------------------------------------------------|
                                                                x6
G|--------------------------------------------------------|
D|--------------------------------------------------------|
A|-2--2-2--2-2-2-2--2-2—-2--------------------------------|
E|--------------------------0--0-0--0-0-0-0--0-0--0-0-0---|

E TÃO SERIO
G|----------------------------------------------------|
D|----------------5/7--5------------------------------|
A|-3--3-3--3-3-3—---------7--0--0-0--0-0-0-0--0-3-3---|
E|----------------------------------------------------|

SELVAGEM
G|----------------------------------------------|    |-----------------|
D|----------------------------------------------|    |-----------------|
A|-2-2-2-2-2-2-2-2------------------------------|(x2)|-2-2-2-2-2-2-2-2-|
E|------------------0--0-0--0-0-0-0--0-0--0-0-0-|    |-----------------|

SOLO
G|----------------------------|
D|----2-2---------------------|
A|--------5-5-4-4-------------|      X4
E|-0--------------3-4--0--1-2-|

VEJA O SOL
G|------------------------------------------------|
D|------------------------------------------------|
A|-3--3-3--3-3-3-3--3-2--0--0-0--0-0-0-0--0-3-3---|
E|------------------------------------------------|
                                                                X2
G|--------------------------------------------------------|
D|--------------------------------------------------------|
A|-2--2-2--2-2-2-2--2-2—-2--------------------------------|
E|--------------------------0--0-0--0-0-0-0--0-0--0-0-0---|

ENTÃO ME ABRAÇA FORTE
G|----------------------------------------------------|
D|----------------5/7--5------------------------------|
A|-3--3-3--3-3-3—---------7--0--0-0--0-0-0-0--0-3-3---|
E|----------------------------------------------------|

ME DIZ MAIS UMA VEZ
G|--------------------------------------------------------|
D|--------------------------------------------------------|
A|-2--2-2--2-2-2-2--2-2—-2--------------------------------|
E|--------------------------0--0-0--0-0-0-0--0-0--0-0-0---|

DISTANTES DE TUDO
G|------------------------------------------------|
D|------------------------------------------------|
A|-3--3-3--3-3-3-3--3-2--0--0-0--0-0-0-0--0-3-3---|
E|------------------------------------------------|


TEMOS NOSSO PRÓPRIO TEMPO
G|----------------------------------------------|
D|----------------------------------------------|
A|-2-2-2-2-2-2-2-2------------------------------|     x3
E|------------------0--0-0--0-0-0-0--0-0--0-0-0-|

NÃO TENHO MEDO
G|------------------------------------------------|
D|------------------------------------------------|
A|-3--3-3--3-3-3-3--3-2--0--0-0--0-0-0-0--0-3-3---|
E|------------------------------------------------|
                                                                
G|--------------------------------------------------------|
D|--------------------------------------------------------|
A|-2--2-2--2-2-2-2--2-2—-2--------------------------------|
E|--------------------------0--0-0--0-0-0-0--0-0--0-0-0---|

ACESAS
G|------------------------------------------------|
D|------------------------------------------------|
A|-3--3-3--3-3-3-3--3-2--0--0-0--0-0-0-0--0-3-3---|
E|------------------------------------------------|

AGORA
G|----------------------------------------------|
D|----------------------------------------------|
A|-2-2-2-2-2-2-2-2------------------------------|
E|------------------0--0-0--0-0-0-0--0-0--0-0-0-|

O QUE FOI ESCONDIDO
G|----------------------------------------------------|
D|----------------5/7—-5------------------------------|
A|-3--3-3--3-3-3—---------7--0--0-0--0-0-0-0--0-3-3---|
E|----------------------------------------------------|

E O QUE FOI PROMETIDO
G|--------------------------------------------------------|
D|--------------------------------------------------------|
A|-2--2-2--2-2-2-2--2-2—-2--------------------------------|
E|--------------------------0--0-0--0-0-0-0--0-0--0-0-0---|

NEM FOI TEMPO PERDIDO
G|----------------------------------------------------|
D|----------------5/7--5------------------------------|
A|-3--3-3--3-3-3—---------7--0--0-0--0-0-0-0--0-3-3---|
E|----------------------------------------------------|

SOMOS TÃO JOVENS
G|----------------------------------------------|    |-----------------|
D|----------------------------------------------|    |-----------------|
A|-2-2-2-2-2-2-2-2------------------------------|(x2)|-2-2-2-2-2-2-2-2-|
E|------------------0--0-0--0-0-0-0--0-0--0-0-0-|    |-----------------|

FIM
G|----------------------------|
D|----2-2---------------------|
A|--------5-5-4-4-------------|      x8
E|-0--------------3-4--0--1-2-|
Composição: Renato RussoColaboração e revisão:
  • Erick Ramos

0 comentários

    mostrar mais comentários
    00:00 / 00:00
    outros vídeos desta música
    repetirqualidadeautomática
    Outro vídeos desta música
      00:00 / 00:00
      automática
      OK