Cifra Club

Todas Elas Juntas Num só Ser

Lenine

Tab de baixo: Principal
Selo Cifra Club: esta cifra foi revisada para atender aos critérios oficiais da nossa Equipe de Qualidade.
tom: Afinação:
[Intro]

G|------3---3---x---------------------------|
D|------3---3---x---------------------------|
A|------------------------------------------|
E|-3--3-----------0-----1-------------------|

G|------3---3---x---------------------------|
D|------3---3---x---------------------------|
A|------------------------------------------|
E|-3--3-----------0--1--2-------------------|

[Primeira Parte]

G|------3-X-X---X---3----3------------------|
D|------3-X-X---X---3----3------------------|
A|-----------------------X------------------|
E|-3--3---X---X---X---0--1------------------|

G|------3-X-X---X---2----2------------------|
D|------1-X-X---X---1----1------------------|
A|-3-—3---X---X---X---3--3------------------|
E|------------------------------------------|

G|------6-X-X---X---5----5------------------|
D|------5-X-X---X---4----4------------------|
A|------4-----------3----3------------------|
E|-5--5---X---X---X---4--4------------------|

[Refrão]

G|------8-X-X---X---8----8------------------|
D|------8-X-X---X---8----8------------------|
A|------6-X-X---X---6----6------------------|
E|--8—8---X---X---X---8--8------------------|

G|------7-X-X---X---7----7------------------|
D|------8-X-X---X---8----8------------------|
A|------6-X-X---X---6----6------------------|
E|--8—8---X---X---X---8--8------------------|

G|------6----------------5------------------|
D|------5----------------4------------------|
A|------4----------------3------------------|
E|-5--5-------5---4---4------4--------------|

[Final]

G|------8-X-X---X---8----8------------------|
D|------8-X-X---X---8----8------------------|
A|------6-X-X---X---6----6------------------|
E|--8—8---X---X---X---8--8------------------|

G|------7-X-X---X---7----7------------------|
D|------8-X-X---X---8----8------------------|
A|------6-X-X---X---6----6------------------|
E|--8—8---X---X---X---8--8------------------|
Outros vídeos desta música
    562 exibições

    Afinação da cifra

    Afinador online

    0 comentários

    Ver todos os comentários

    Conseguiu tocar?

    0Tocaram0Ainda não

    Grave um vídeo tocando Todas Elas Juntas Num só Ser e nos envie!

    Toque também

    1. Imagem do artista DjavanOceano Djavan
    2. Imagem do artista Alceu ValençaAnunciação Alceu Valença
    3. Imagem do artista Zeca BaleiroTelegrama Zeca Baleiro
    4. Imagem do artista Paulinho MoskaPensando Em Você Paulinho Moska

    Entre para o Cifra Club PRO

    Tenha acesso a benefícios exclusivos no App e no Site

    • Chega de anúncios

    • Badges exclusivas

    • Mais recursos no app do Afinador

    • Atendimento Prioritário

    • Aumente seu limite de lista

    • Ajude a produzir mais conteúdo

    Cifra Club Pro

    Aproveite o Cifra Club com benefícios exclusivos e sem anúncios
    Cifra Club Pro
    Aproveite o Cifra Club com benefícios exclusivos e sem anúncios
    OK