Cifra Club

Hoje Eu Quero Sair Só

Lenine

Cifra: Principal (violão e guitarra)
exibições 470.837
Tom: D
[Intro] Bm7  G6  Em7  G6  G/A

[Dedilhado Introdução e Primeira Parte]

Parte 1 de 3
    Bm7               G6
E|-----x--------x--------x--------x---------|
B|-----x--------x--------x--------x---------|
G|-7-7-x----7-7-x----4-4-x----4-4-x---------|
D|-7-7-x----4-4-x----2-2-x----0-0-x---------|
A|-5-5-x----5-5-x----5-5-x----5-5-x---------|
E|-7---x-x--7---x-x--3---x-x--3---x-x-------|

Parte 2 de 3
    Em7               G6*    G/A
E|-----x--------x--------x--------x---------|
B|-3-3-x----3-3-x----3-3-x--0-0-0-x---------|
G|-0-0-x----0-0-x----0-0-x--4-4-4-x---------|
D|-5-5-x----0-0-x----2-2-x--5-5-5-x---------|
A|-----x--------x--------x--------x---------|
E|-0---x-x--0---x-x--3---x----5---x-x-------|

Parte 3 de 3
    Em7               G6*      G/A
E|-----x--------x--------x--------x---------|
B|-3-3-x----3-3-x----3-3-x----0-0-x---------|
G|-0-0-x----0-0-x----0-0-x----4-4-x---------|
D|-5-5-x----0-0-x----2-2-x----5-5-x---------|
A|-----x--------x--------x--------x---------|
E|-0---x-x--0---x-x--3---x-x--5---x-x-------|


[Primeira Parte]

    Bm7                G6
Se você quer me seguir
           Em7  G6  G/A
Não é seguro
   Bm7                G6
Você não quer me trancar
                Em7  G6  G/A
Num quarto escuro
    Bm7           G6
Às vezes parece até
                    Em7  G6  G/A
Que a gente deu um nó
 Bm7            G6    Em7  G6  G/A
Hoje eu quero sair só

   Bm7               G6
Você não vai me acertar
             Em7    G6  G/A
À queima-roupa, não
     Bm7            G6
Vem cá, me deixa fugir
              Em7  G6  G/A
Me beija a boca
    Bm7           G6
Às vezes parece até
                    Em7  G6  G/A
Que a gente deu um nó
 Bm7            G6  Em7
Hoje eu quero sair só
       G6             G/A
Não demora, eu tô de volta


[Refrão]

Bm7                           A7(11)
    Vai ver se eu tô lá na esquina
        G7
Devo estar
                    A7(11)        A#º
Já deu minha hora e eu não posso ficar
Bm7
    A lua me chama
    A7(11)              G7
Eu tenho que ir pra rua

A lua me chama
    A7(11)           A#º  Bm7  G6
Eu tenho que ir pra rua
 Em7               G6  G/A  Bm7  G6
Hoje eu quero sair    só
 Em7            G6  G/A
Hoje eu quero sair

Parte 1 de 2
    Bm7               A7(11)
E|-----x--------x--------x--------x---------|
B|-0-0-x----0-0-x----3-3-x----3-3-x---------|
G|-7-7-x----7-7-x----6-6-x----6-6-x---------|
D|-7-7-x----7-7-x----5-5-x----5-5-x---------|
A|-----x--------x--------x--------x---------|
E|-7---x-x--7---x-x--5---x-x--5-5-x-x-------|

Parte 2 de 2
    G7                A7(11)   A#º
E|-----x--------x--------x--------x---------|
B|-0-0-x----0-0-x----3-3-x----5-5-x---------|
G|-4-4-x----4-4-x----6-6-x----6-6-x---------|
D|-3-3-x----3-3-x----5-5-x----5-5-x---------|
A|-----x--------x--------x--------x---------|
E|-3---x-x--3---x-x--5---x-x--6-6-x-x-------|


[Repete Primeira Parte]

   Bm7               G6
Você não vai me acertar
             Em7    G6  G/A
À queima-roupa, não
     Bm7            G6
Vem cá, me deixa fugir
              Em7  G6  G/A
Me beija a boca
    Bm7           G6
Às vezes parece até
                    Em7  G6  G/A
Que a gente deu um nó
 Bm7            G6  Em7
Hoje eu quero sair só
       G6             G/A
Não demora, eu tô de volta


[Refrão]

Bm7                           A7(11)
    Vai ver se eu tô lá na esquina
        G7
Devo estar
                    A7(11)        A#º
Já deu minha hora e eu não posso ficar
Bm7
    A lua me chama
    A7(11)              G7
Eu tenho que ir pra rua

A lua me chama
    A7(11)           A#º
Eu tenho que ir pra rua

Bm7                           A7(11)
    Vai ver se eu tô lá na esquina
        G7
Devo estar
                    A7(11)        A#º
Já deu minha hora e eu não posso ficar
Bm7              A7(11)
    A lua me chama
           G7
A lua me chama

A lua me chama
    A7(11)           A#º
Eu tenho que ir pra rua

[Final]

Parte 1 de 4
E|-----x--------x--------x--------x---------|
B|-----x--------x--------x--------x---------|
G|-7-7-x----7-7-x----7-7-x----7-7-x---------|
D|-9-9-x-x--9-9-x-x--5-5-x-x--5-5-x-x-------|
A|-----x--------x--------x--------x---------|
E|-----x--------x--------x--------x---------|

Parte 2 de 4
E|-----x--------x--------x--------x---------|
B|-3-3-x----3-3-x--------x--------x---------|
G|-----x--------x----7-7-x--7-7-7-x---------|
D|-2-2-x-x--2-2-x-x--5-5-x--7-7-7-x-x-------|
A|-----x--------x--------x--------x---------|
E|-----x--------x--------x--------x---------|

Parte 3 de 4
E|-----x--------x--------x--------x---------|
B|-----x--------x--------x--------x---------|
G|-7-7-x----7-7-x----7-7-x----7-7-x---------|
D|-4-4-x-x--4-4-x-x--5-5-x-x--5-5-x-x-------|
A|-----x--------x--------x--------x---------|
E|-----x--------x--------x--------x---------|

Parte 4 de 4
E|-----x--------x--------x--------x---------|
B|-3-3-x----3-3-x--------x--------x---------|
G|-----x--------x----7-7-x--7-7-7-x---------|
D|-2-2-x-x--2-2-x-x--5-5-x--8-8-8-x-x-------|
A|-----x--------x--------x--------x---------|
E|-----x--------x--------x--------x---------|
Acordes para:
    Composição: Lenine Colaboração e revisão:

    0 comentários

    mostrar mais comentários

    Conseguiu tocar?

    19 tocaram 7 ainda não

    Grave um vídeo tocando Hoje Eu Quero Sair Só e mande pra gente!

    00:00 / 00:00
    outros vídeos desta música
    repetir qualidade Automático
    Outros vídeos desta música
    00:00 / 00:00
    Automático
    Capítulos
    • Tocando a música
    • Apresentação / Equipamentos
    • Acordes da música
    • Ritmo da música
    • Encerramento
    OK