Notificações Amigos pendentes

      Leoni

      Por Que Não Eu

      524.474 exibições
      Tom: G
      Intro: G5  F#5+  E5  C5
      
             G5  F#5+  E5  D#5-
      E|2--2--2--3--3--3--5--5-------------------
      B|3--3--3--3--3--3--3--3-------------------
      G|0--0--0--0--0--0--0--0-------------------  (7x)
      D|-----------------------------------------
      A|-----------------------------------------
      E|-----------------------------------------
      
        ↓  ↓  ↓  ↓  ↓  ↓  ↓  ↓
      
      
      E|5--5--3----------------------------------
      B|---------4--3--1h3p1---------------------
      G|-----------------------------------------
      D|-----------------------------------------
      A|-----------------------------------------
      E|-----------------------------------------
      
      
      
      Primeira Parte:
      G5                      F#5+
         Quando ela cai no sofá
               E5  C5
      So far away
      Em7                    D5(9)
          Vinho à beça na cabeça
              C9
      Eu que sei
      
      E|2--2--2--3--3--3--5--5-------------------
      B|3--3--3--3--3--3--3--3-------------------
      G|0--0--0--0--0--0--0--0-------------------  (4x)
      D|-----------------------------------------
      A|-----------------------------------------
      E|-----------------------------------------
      
        ↓  ↓  ↓  ↓  ↓  ↓  ↓  ↓
      
      
        G       D5       C  C9 C  C9
      E|7---7---5---5----0--0--0--3--------------
      B|8---8---3---3----1--3--1--1--------------
      G|7---7---2---2----0--0--0--0--------------
      D|-----------------2--2--2--2--------------
      A|-----------------3-----------------------
      E|-----------------------------------------
      
        ↓   ↓   ↓   ↓    ↓  ↓  ↓  ↓
      
      
      G5                           F#5+
         Quando ela insiste em beijar
      Seu travesseiro
      E5                 C5
         Eu me viro do avesso
      Em7                       D5(9)
          Eu vou dizer aquelas coisas
                      C9
      Mas na hora esqueço
      
      E|2--2--2--3--3--3--5--5-------------------
      B|3--3--3--3--3--3--3--3-------------------
      G|0--0--0--0--0--0--0--0-------------------  (4x)
      D|-----------------------------------------
      A|-----------------------------------------
      E|-----------------------------------------
      
        ↓  ↓  ↓  ↓  ↓  ↓  ↓  ↓
      
      
        G       D5       C  C9 C  C9
      E|7---7---5---5----0--0--0--3--------------
      B|8---8---3---3----1--3--1--1--------------
      G|7---7---2---2----0--0--0--0--------------
      D|-----------------2--2--2--2--------------
      A|-----------------3-----------------------
      E|-----------------------------------------
      
        ↓   ↓   ↓   ↓    ↓  ↓  ↓  ↓
      
      
      Refrão:
                  G
      Por que não eu?
          Bm7
      Ah! Ah!
                  C9
      Por que não eu? (4x)
      
      Primeira Parte com variação na letra:
      G5                     F#5+
         Eu encomendo um jantar
                  E5  C5
      Só prá nós dois
      Em7                        D5(9)
          Se não tem nada prá depois
                  C9
      Por que não    eu?
      G5                F#5+           E5
         Você tá nessa,      rejeitada
                  C5
      Caçando paixão
      Em7                   D5(9)
      Eu com a cara mais lavada
      Digo
               C5
      Por que não?
      Por que não?
      
      Refrão:
                  G
      Por que não eu?
          Bm7
      Ah! Ah!
                  C9
      Por que não eu? (4x)
      
      
      Solo 2x: G5  F5#+  E5  C5  Em7  D5(9)  C9
      E|---------------------------------------------------
      B|---------------------------------------------------
      G|------------------7--------------------------------
      D|------5-6-7-7-8-9---9--7---------------------------
      A|5-6-7--------------------10------------------------
      E|---------------------------------------------------
      
      
      E|---------------------------------------------------
      B|-----8--------10b12~--12--13--10b12--10------------
      G|7—9----9--7------------------------------12~-------
      D|---------------------------------------------------
      A|---------------------------------------------------
      E|---------------------------------------------------
      
      
      E|--10b12---10--9--8--7-8-10-6/7---------------------
      B|8-------------------------------8------------------
      G|-----------------------------------7~--------------
      D|---------------------------------------------------
      A|---------------------------------------------------
      E|---------------------------------------------------
      
      
      E|---------3-----------------------------------------
      B|8-8-6b---3-6-3---3----5---3b-----------------------
      G|---------------5-3----5---3b-----------------------
      D|-------------------5----5-----3--4--5~-------------
      A|---------------------------------------------------
      E|---------------------------------------------------
      
      
      E|---------------------------------------------------
      B|---------------------------------------------------
      G|--------------7----------------------7-------------
      D|------5--7/9-----9--7--6--5--5--7/9-----5--7--5----
      A|5--7-----------------------------------------------
      E|---------------------------------------------------
      
      
      E|---------------------------------------------------
      B|-----------8--------10b12~--12-13--10b12--10-------
      G|-----7--9-----9--7----------------------------12~--
      D|7/9------------------------------------------------
      A|---------------------------------------------------
      E|---------------------------------------------------
      
      
      E|----10b12--9--7-8-10--6/7--------------------------
      B|8-------------------------8------------------------
      G|----------------------------7~---------------------
      D|---------------------------------------------------
      A|---------------------------------------------------
      E|---------------------------------------------------
      
      
      E|3--------------------------------------------------
      B|3------5---/5--/3----------------------------------
      G|----6--5---/5--/4---5--3--5~-----------------------
      D|---------------------------------------------------
      A|---------------------------------------------------
      E|---------------------------------------------------
      
      
      
      Refrão:
                  G
      Por que não eu?
          Bm7
      Ah! Ah!
                  C9
      Por que não eu? (4x)
      
      ( Cm  G )
      Parte Final:
      
      E|-----------------3--------------------------------
      B|--------------3-----------------------------------
      G|2--4--2--2/4--------------------------------------
      D|--------------------------------------------------
      A|--------------------------------------------------
      E|--------------------------------------------------
      
      
        Composição: Herbert Vianna / Leoni / Paula TollerColaboração e revisão:
        • tarsiuslima
        • Rafa
        • o_foda
        • Dudu
        • LeandroHC
        • +1

        Comentários 6

        140 .
        • Mosíah Mosíah: Em 11/11/2014 11:20

          eta ninguém conseguiu tocar essa música, por isso eu vou ser o primeiro

        • william william: Em 01/06/2014 21:52

          Muito bom cifra club

        • Thiago Thiago: Em 19/05/2014 17:38

          Perfeita! Vlw cifra club!

        • Raphael Raphael: Em 09/05/2013 18:41

          linda música!

        • johnzinho.15 johnzinho.15: Em 02/02/2012 00:03

          perfeita essa música!

        • maideniron maideniron: Em 22/12/2011 15:07

          mUITO LINDA E FÁCIL

        140 cancelar

        conseguiu tocar?

        • •••

        covers

        Grave um vídeo tocando Por Que Não Eu e mande pra gente!

        Ex.: http://www.youtube.com/watch?v=0IvSvIwGdwk
        ver covers de outras músicas »
        0:00 / 0:00
        1 versão de Guitar Proformatodownloadscontribuição
        play/pausefechar subir/descer velocidade
        6ª corda E5ª corda A4ª corda D3ª corda G2ª corda B1ª corda E
          acordes
          publicidade
          fechar
          ok