Cifra Club

Aprenda

Vale de Ossos Secos

Ludmila Ferber

Cifra: Principal (violão e guitarra)
tom: G
[Intro] G/B  C  D  Em  C  D  C  D

E|-------------------------------------------|
B|------8--10--10/12--10--8-----7/8/7--10--8-|
G|---9-----------------------9---------------|
D|-------------------------------------------|
A|-------------------------------------------|
E|-------------------------------------------|

E|-------------------------------------------|
B|------8--10--10/12--10--8------------------|
G|---9-----------------------9--7--5--7------|
D|-------------------------------------------|
A|-------------------------------------------|
E|-------------------------------------------|

          G         C    D       G  C
Sopra Espírito de Deus neste lugar
D          Em         C    Am7    D   C  D
Com teu poder e tua graça vem avivar

         G         C     D       G  C
Sopra Espírito de Deus neste lugar
D          Em         C    Am7    D  C
Com teu poder e tua graça vem avivar

D       C             D/C
Sobre o vale de ossos secos
         G             C
Faz um exército  se   levantar
            Am7   Am7/G   D/F#
Sobre as feridas  não  tratadas
            F C/E        D
Vem restaurar  e   curar

( G/B  C  D  Em  C  D  C  D )

         G         C     D       G  C
Sopra Espírito de Deus neste lugar
D          Em         C    Am7    D    C  Am7 D
Com teu poder e tua graça vem avivar

        C               D/C
Sobre o vale de ossos secos
         G             C
Faz um exército  se   levantar
            Am7  Am7/G     D/F#
Sobre as feridas  não  tratadas
            F C/E        D
Vem restaurar  e   curar

G                     Em     D/F#  G
Sobre os nossos corações  (vem Senhor)
G                  D          Am
Sobre todas as nações (vem Senhor)
       G/B            C                D
Sobre toda terra estende a tua glória
                 C    G
Ora vem Senhor Jesus

                C     D
Ora vem Senhor Jesus
                C/E   D/F#
Ora vem Senhor Jesus


( G/B  C  D  Em  C  D  C  D )
Compositor não encontrado.
Colaboração e revisão:
203.393 exibições
    • ½ Tom
    • A
    • Bb
    • B
    • C
    • Db
    • D
    • Eb
    • E
    • F
    • F#
    • G
    • Ab
  • Adicionar à lista

    0 comentários

    Ver todos os comentários
    00:00 / 00:00
    Outros vídeos desta música
    Repetir Qualidade Automático
    Outros vídeos desta música
    00:00 / 00:00
    Automático

    Cifra Club Pro

    Aproveite o Cifra Club com benefícios exclusivos e sem anúncios
    Cifra Club Pro
    Aproveite o Cifra Club com benefícios exclusivos e sem anúncios
    OK