Cifra Club

"S" de Saudade (part. Zé Neto e Cristiano)

Luiza e Maurílio

Cifra: Principal (violão e guitarra)
tom: B
[Intro] C#m  E  B  F#

E|-----------------------------------------------|
B|-----------------------------------------------|
G|-----------------------------------------------|
D|-----------------------------------------------|
A|-/2-2--4--4/6--7----6p4/2--2h4-----------------|
E|-----------------------------------------------|

E|-----------------------------------------------|
B|-5p4-5p4-5p4-5/7-5--------5-5p4-5p4-5p4-5/7----|
G|-----------------------------------------------|
D|-----------------------------------------------|
A|-----------------------------------------------|
E|-----------------------------------------------|

E|-----------------------------------------------|
B|---5-4---5-4-----4-4-4-4-4-7-4-----------------|
G|-4-----4-----------------------6---4h6-4-3h4-3-|
D|-----------------------------------------------|
A|-----------------------------------------------|
E|-----------------------------------------------|

[Primeira Parte]

E             F#
É, olha eu aqui
               D#m                  G#m
Na vida de solteiro que eu sempre quis
E            F#
É, eu consegui
             D#m                G#m
A liberdade de poder chegar e sair

[Pré-Refrão]

          E                        B
Mas você deve ter jogado praga em mim
                F#
Eu não quero beber
              G#m
Eu não quero sair
   E                          F#                B
A vida de solteiro que eu sonhava não era assim

[Refrão]

                    C#m7
Sextou com S de saudade
                      E
Cheio de balada na cidade
                          B
Mas nenhuma delas tem o show

Que cê dava na cama
                    F#
Nenhum Dj toca sua voz falando que me ama

                    C#m7
Sextou com S de saudade
                      E
Cheio de balada na cidade
                          B
Mas nenhuma delas tem o show

Que cê dava na cama
                    F#
Nenhum Dj toca sua voz falando que me ama
                    C#m7
Sextou com S de saudade

( C#m  E  B  F# )

E|-----------------------------------------------|
B|-5p4-5p4-5p4-5/7-5--------5-5p4-5p4-5p4-5/7----|
G|-----------------------------------------------|
D|-----------------------------------------------|
A|-----------------------------------------------|
E|-----------------------------------------------|

E|-----------------------------------------------|
B|---5-4---5-4-----4-4-4-4-4-7-4-----------------|
G|-4-----4-----------------------6---4h6-4-3h4-3-|
D|-----------------------------------------------|
A|-----------------------------------------------|
E|-----------------------------------------------|

[Pré-Refrão]

          E                        B
Mas você deve ter jogado praga em mim
                F#
Eu não quero beber
              G#m
Eu não quero sair
   E                          F#                B
A vida de solteiro que eu sonhava não era assim

[Refrão]

                    C#m7
Sextou com S de saudade
                      E
Cheio de balada na cidade
                          B
Mas nenhuma delas tem o show

Que cê dava na cama
                    F#
Nenhum Dj toca sua voz falando que me ama

                    C#m7
Sextou com S de saudade
                      E
Cheio de balada na cidade
                          B
Mas nenhuma delas tem o show

Que cê dava na cama
                    F#
Nenhum Dj toca sua voz falando que me ama

                    C#m7
Sextou com S de saudade
                      E
Cheio de balada na cidade
                          B
Mas nenhuma delas tem o show

Que cê dava na cama
                    F#
Nenhum Dj toca sua voz falando que me ama
                    C#m7  E
Sextou com S de saudade
00:00 / 00:00
Outros vídeos desta música
Repetir
Outros vídeos desta música
Composição de De Angelo, Gabriel Agra, Bruno Sucesso
Colaboração e revisão:
499.469 exibições
    • ½ Tom
    • A
    • Bb
    • B
    • C
    • Db
    • D
    • Eb
    • E
    • F
    • F#
    • G
    • Ab
  • Adicionar à lista

    0 comentários

    Ver todos os comentários

    Conseguiu tocar?

    85 Tocaram 35 Ainda não

    Grave um vídeo tocando "S" de Saudade (part. Zé Neto e Cristiano) e nos envie!

    Entre para oCifra Club PRO

    Tenha acesso a benefícios exclusivos no App e no Site

    • Chega de anúncios

    • Prioridade de compra em lançamentos

    • Mais recursos no app do Afinador

    • Atendimento Prioritário

    • Descontos nos produtos Cifra Club

    • Ajude a produzir mais conteúdo

    00:00 / 00:00

    Cifra Club Pro

    Aproveite o Cifra Club com benefícios exclusivos e sem anúncios
    Cifra Club Pro
    Aproveite o Cifra Club com benefícios exclusivos e sem anúncios
    OK