Cifra Club

Aprenda

Hit

Mahmundi

Tab de baixo: Principal
G|---------------------------------------------------------------------------------------------------|
D|------------2----------2----------------------------2------2---------------------------------------|
A|----2-4-4-4----------4--------0-2-2--2-4------0-2-4---4-4------------------------------------------|
E|--4-----------2-2--2-----4--2------------2-2----------------4-4------------------------------------|

G|---------------------------------------------------------------------------------------------------|
D|--------2-------2-------------2------2-------------------------------2------2---------------2------|
A|--0-2-4---4-4-4---------0-2-4---4-4-----------0-2-2--2-4-------0-2-4---4-4------------0-2-4--------|
E|------------------22-2-----------------4-4--4------------22-2-----------------4-4------------------|

G|---------------------------------------------------------------------------------------------------|
D|---------------------------------------------------------------------------------------------------|
A|------2--------------------------------------------------------------------------------------------|
E|--4-5----------------------------------------------------------------------------------------------|

G|---------------------------------------------------------------------------------------------------|
D|--------2-------2-------------2------2-------------------------------2------2----------------------|
A|--0-2-4---4-4-4---------0-2-4---4-4-----------0-2-2--2-4-------0-2-4---4-4-------------------------|
E|------------------22-2-----------------4-4--4------------22-2-----------------4-4------------------|

G|-------4----------------4--------------------------------------------------------------------------|
D|-----4-----4----------4-----4----------------------------------------------------------------------|
A|--2------4---------2------4------------------------------------------------------------------------|
E|-------------2-02-------------2-2-2----------------------------------------------------------------|

G|---------------------------------------------------------------------------------------------------|
D|--------2-------2-------------2------2-------------------------------2------2----------------------|
A|--0-2-4---4-4-4---------0-2-4---4-4-----------0-2-2--2-4-------0-2-4---4-4-------------------------|  (2x)
E|------------------22-2-----------------4-4--4------------22-2-----------------4--------------------|

G|-------4---------------4----------------------4--------------4-------------------------------------|
D|-----4-----4---------4-----4-----------2----4-----4--------4-----4---------------------------------|
A|--2------4--------2------4-------0-2-4---2------4--------2-----4-----------------------------------|
E|-------------2-02------------2----------------------2-02-----------2-2-2---------------------------|

G|---------------------------------------------------------------------------------------------------|
D|--------2-------2-------------2------2-------------------------------2------2----------------------|
A|--0-2-4---4-4-4---------0-2-4---4-4-----------0-2-2--2-4-------0-2-4---4-4-------------------------|  (2x)
E|------------------22-2-----------------4-4--4------------22-2-----------------4--------------------|
Colaboração e revisão:
  • Matheus Ribeiro
27 exibições

0 comentários

Ver todos os comentários

Conseguiu tocar?

1 Tocaram 0 Ainda não

Grave um vídeo tocando Hit e nos envie!

00:00 / 00:00
outros vídeos desta música
repetir qualidade Automático
Outros vídeos desta música
00:00 / 00:00
Automático

Cifra Club Pro

Aproveite o Cifra Club com benefícios exclusivos e sem anúncios
Cifra Club Pro
Aproveite o Cifra Club com benefícios exclusivos e sem anúncios
OK