Notificações Amigos pendentes

      Marcelo Camelo

      De Onde Vem a Calma

      18.397 exibições
      Tom: G#
      Introdução: Ab 
      
       Ab
      De onde vem a calma daquele cara?
                                 Db
      Ele não sabe ser melhor, viu?
       Ab
      Como não entende de ser valente
                           Db
      ele não sabe ser mais viril
                   Bbm    Eb
      Ele não sabe não, viu?
                        Ab      Fm
      As vezes dá como um frio 
                         Bbm     Eb
      É o mundo que anda hostil
                     Ab       (Ab)
      O mundo todo é hostil
      
       Ab
      De onde vem o jeito tão sem defeito
                               Db
      que esse rapaz consegue fingir?
       Ab
      Olha esse sorriso tão indeciso
                               Db
      Está se exibindo pra solidão
                     Bbm     Eb
      Não vão embora daqui
                     Ab       Fm
      Eu sou o que vocês são
                     Bbm      Eb 
      Não solta da minha mão
       
      Não solta da minha mão 
      
      Ponte
      
      e|------------------------------|
      B|------------------------------|
      G|-10-10-10---8-----------------|
      D|-10-10-10---8---6-6-6-x-x-x---|  2x
      A|--8--8--8---6---6-6-6-x-x-x---|
      E|----------------4-4-4-x-x-x---|
      
      
      e|----------------------------------------------|
      B|----------------------------------------------|
      G|--3-3-3--5-6-6-6--x-x-x--6-6-6-7-8-8-8--x-x-x-|
      D|--3-3-3--5-6-6-6--x-x-x--6-6-6-7-8-8-8--x-x-x-|
      A|--1-1-1--3-4-4-4--x-x-x--4-4-4-5-6-6-6--x-x-x-|
      E|----------------------------------------------|
      
      
      x-x-x = mantenha o power chord montado anteriormente, sem pressionar as cordas 
      (Repita toda a ponte duas vezes)
      
      
      
      Ponte 2 (Base: Ab)
      e|-------4-------4------|
      B|-----------4-------4--|
      G|---------5-------5----|4x
      D|----------------------|
      A|----------------------|
      E|--4-------------------|
      
      
      Ab           
      Eu não vou mudar não
               Fm
      Eu vou ficar são
               Db      Bbm      
      Mesmo se for só,
                Ab 
      não vou ceder
                    
      Deus vai dar aval sim,
                Fm
      o mal vai ter fim
             Bbm          Eb
      e no final assim calado
                 Bbm         Eb         Ab 
      eu sei que vou ser coroado rei de mim
      
      Solo final:
      
         Ab                Db               Ab                  Db
      e|-8----6--9-8-6-----------9~~~~~-----8----6---9-8-6--------------|
      B|-------------------9-6----------------------------------9-6~~~~-|
      G|----------------------------------------------------------------|
      D|----------------------------------------------------------------|
      A|----------------------------------------------------------------|
      E|----------------------------------------------------------------|
      
      
                  Bbm       Eb       Bbm        Eb           Bbm      Eb    Ab
      e|----6--8--------9-8-8-6------6-----9-8-8-6-----6--11-9-8-6-9-8-6----------| 
      B|-9--------6----------------9---6------------9--------------------8-9~~~~~-|
      G|--------------------------------------------------------------------------|
      D|--------------------------------------------------------------------------|
      A|--------------------------------------------------------------------------|
      E|--------------------------------------------------------------------------|
      

      Comentários 1

      140 .
      • catatinha13 catatinha13: Em 05/05/2012 13:04

        Camelo Gêniooo que letra maravilhosa.



      140 cancelar

      conseguiu tocar?

      covers

      Grave um vídeo tocando De Onde Vem a Calma e mande pra gente!

      Ex.: http://www.youtube.com/watch?v=0IvSvIwGdwk
      ver covers de outras músicas »
      0:00 / 0:00

      Capítulos

        1 versão de violão dificuldade exibições contribuição e correção
        1 versão de guitarra dificuldade exibições contribuição e correção
        1 versão de cavaco dificuldade exibições contribuição e correção
        1 versão de teclado dificuldade exibições contribuição e correção
        play/pausefechar subir/descer velocidade
        6ª corda E5ª corda A4ª corda D3ª corda G2ª corda B1ª corda E
          acordes
          publicidade
          fechar
          ok