Cifra Club

Nessas Horas

Matheus e Kauan

Cifra: Principal
exibições 273.249
Tom: F#
[Intro]  B9  F#  D#m  C#9


E|----9-11p9--------------------11p9--------------------------|
B|--7---------9h11----7-9-9/11~-------11p9--11p9p7--6---------|
G|-----------------------------------------------------6-6/8~-|
D|------------------------------------------------------------|
A|------------------------------------------------------------|
E|------------------------------------------------------------|


 B9                 F#
Você de lá e eu de cá
                 C#9                  B9
Olhando o mesmo céu, que distância cruel
B9                  F#
Assisto o tempo passar
                C#9                B9
Tento me dispersar, olhando o celular

   B9          F#          C#9           D#m
Metade do meu coração só quer te ver de novo
    B9        F#         C#9
E a outra só pensa em você
     B9           F#           C#9           D#m
Não tem nenhum espaço pra eu amar alguém de novo
    B9      F#      C#9
Em mim só existe você

          B9                       F#
E nessas horas, meu sorriso é passageiro
                D#m                      C#9
É aí que eu percebo, a falta que me faz você
          B9                        F#
E nessas horas, eu nem ligo pra dinheiro
                    D#m                  C#9
Pra eu me sentir inteiro, só preciso de você
      B9
De você

( B9  F#  D#m  C#9 )


E|----9-11p9--------------------11p9-----------------------|
B|--7---------9h11----7-9-9/11~-------11p9---7-6-----------|
G|------------------------------------------------6-8~-----|
D|---------------------------------------------------------|
A|---------------------------------------------------------|
E|---------------------------------------------------------|


B9                 F#
E você de lá e eu de cá
                 C#9                  B9
Olhando o mesmo céu, que distância cruel
   B9                  F#
Eu assisto o tempo passar
                C#9                B9
Tento me dispersar, olhando o celular

   B9          F#          C#9           D#m
Metade do meu coração só quer te ver de novo
    B9        F#         C#9
E a outra só pensa em você
     B9           F#           C#9           D#m
Não tem nenhum espaço pra eu amar alguém de novo
    B9      F#      C#9
Em mim só existe você

          B9                       F#
E nessas horas meu sorriso é passageiro
                D#m                      C#9
É aí que eu percebo, a falta que me faz você
          B9                           F#
E nessas horas que eu nem ligo pra dinheiro
                    D#m                  C#9
Pra eu me sentir inteiro, só preciso de você
          B9                       F#
E nessas horas meu sorriso é passageiro
                D#m                      C#9
É aí que eu percebo, a falta que me faz você
          B9                           F#
E nessas horas que eu nem ligo pra dinheiro
                    D#m                  C#9
Pra eu me sentir inteiro, só preciso de você
      B9
De você

[Final] B9  F#
Acordes para:

    0 comentários

      mostrar mais comentários

      Conseguiu tocar?

      20tocaram2ainda não

      Grave um vídeo tocando Nessas Horas e mande pra gente!

      00:00 / 00:00
      outros vídeos desta música
      repetirqualidadeautomática
      Outro vídeos desta música
        00:00 / 00:00
        automática
        OK