Cifra Club

Estrada da Vida

Milionário e José Rico

Cifra: Principal
exibições 860.624
Tom: C
               
[Intro] C G7 C G7 C G7 C F G7 C G7 C C7

     C        G7               C                  G7              C
E|--------------------------------------------------------------------|
A|--------------------------------------------------------------------|
D|--------------------------------------------------------------------|
G|-5-7-9-5-7-10~--7-5-9~--5-4-2-0---9-10-12-9-10-14~--7-9-10-7-9-12~--|
B|--------------------------------------------------------------------|
E|-5-7-8-5-7-10~--7-5-8~--5-3-1-0---8-10-12-8-10-13~--7-8-10-7-8-12~--|

              G7               C               F         G7     C
E|--------------------------------------------------------------------|
A|--------------------------------------------------------------------|
D|--------------------------------------------------------------------|
G|-5-7-9-5-7-10~--7-5-9~--5-4-2-0---9-7-5-4-2-5~---9-7-9-10-9~--------|
B|--------------------------------------------------------------------|
E|-5-7-8-5-7-10~--7-5-8~--5-3-1-0---8-7-5-3-1-5~---8-7-8-10-8~--------|

            G7           C   C7
E|--------------------------------------------------------------------|
A|--------------------------------------------------------------------|
D|--------------------------------------------------------------------|
G|-14-12-16-14-12-10-9~-----------------------------------------------|
B|--------------------------------------------------------------------|
E|-13-12-15-13-12-10-8~-----------------------------------------------|

       C        G       C
Nesta longa estrada da vida
                          G7
Vou correndo e não posso parar
        F                C
Na esperança de ser campeão
      G7                 C
Alcançando o primeiro lugar
        F                C
Na esperança de ser campeão
      G7                 C    C7
Alcançando o primeiro lugar

       F
Mas o tempo cercou minha estrada
        G7          C
E o cansaço me dominou
                        G
Minhas vistas se escureceram
       F         G7      C
E o final da corrida chegou

[C G7 C G7 C G7 C F G7 C G7 C C7]

     C     G         C
Este é o exemplo da vida
                            G7
Para quem não quer compreender
       F               C
Nós devemos ser o que somos
      G7                C
Ter aquilo que bem merecer
       F               C
Nós devemos ser o que somos
      G7                C   C7
Ter aquilo que bem merecer

       F
Mas o tempo cercou minha estrada
        G7          C
E o cansaço me dominou
                        G
Minhas vistas se escureceram
       F         G7      C   [G7 C]
E o final da corrida chegou

0 comentários

    mostrar mais comentários

    Conseguiu tocar?

    39tocaram1ainda não

    Grave um vídeo tocando Estrada da Vida e mande pra gente!

    00:00 / 00:00
    outros vídeos desta música
    repetirqualidadeautomática
    Outro vídeos desta música
      00:00 / 00:00
      automática
      OK