Cifra Club

Kuusou Mesorogiwi

Mirai Nikki

Cifra: Principal (violão e guitarra)
exibições 5.881
Tom: G
  * *                       *      * *           *         * *
E|--------------------------------|--------------------------------|
B|--------------------------------|--------------------------------|
G|--------------------------------|--------------------------------|
D|--------------------------------|--------------------------------|
A|----4===--6===7=x-6=x-4===--6===|----4===--6===--7=====6=----4===|
D|0-0-4===--6===7=x-6=x-4===0-6===|0-0-4===--6===0-7=====6=0-0-4===| 2x

   * * * *   * * *   * * * * * * *  * * * *   * * *   * * * * *
E|--------------------------------|--------------------------------|
B|--------------------------------|--------------------------------|
G|--------------------------------|--------------------------------|
D|--------------------------------|----------------------------3=3=|
A|0-0-0-0---0-0-0---0-0-0-0-0-0-0-|0-0-0-0---0-0-0---0-0-0-0-0-1=1=|
D|0-0-0-0---0-0-0---0-0-0-0-0-0-0-|0-0-0-0---0-0-0---0-0-0-0-0-----| 2x

   Time Signature: 2/4
E|----------------|
B|----------------|
G|----------------|
D|----------------|
A|----------------|
D|----------------|

   Time Signature: 4/4
                                        * * * *     * *     * *
E|--------------------------------|--------------------------------|
B|--------------------------------|--------------------------------|
G|--------------------------------|--------------------------------|
D||4===============4=4=--4=4===4===|--------------------------------|
A||2===============2=2=--2=2===2===|1===--------1===----1===----1===|
D|--------------------------------|1===1-1-1-1-1===1-1-1===1-1-1===| 2x

   * *                              * *
E|--------------------------------|--------------------------------|
B|--------------------------------|--------------------------------|
G|--------------------------------|--------------------------------|
D|--------------------------------|--------------------------------|
A|----4p1=--6===--7===--6===--4===|----4p1=--6===--7===--6===--4===|
D|0-0-4p1=--6===--7===--6===--4===|0-0-4p1=--6===--7===--6===--4===| 2x

E|--------------------------------|--------------------------------|
B|--------------------------------|--------------------------------|
G|--------------------------------|--------------------------------|
D|--------------------------------|--------------------------------|
A||4===============================|6===============================|
D||4===============================|6===============================|

E|--------------------------------|--------------------------------|
B|--------------------------------|--------------------------------|
G|--------------------------------|--------------------------------|
D|--------------------------------|--------------------------------|
A||7===============================|6===============6===x-x-6===6===|
D||7===============================|6===============6===x-x-6===6===|

   Time Signature: 2/4
E|----------------|
B|----------------|
G|----------------|
D|----------------|
A|----------------|
D|----------------|

   Time Signature: 4/4
       * *     * *                      * *     * *
E|--------------------------------|--------------------------------|
B|--------------------------------|--------------------------------|
G|--------------------------------|--------------------------------|
D||6===----6===----6===x-6===6=6===|--------------------------------|
A||4===4-4-4===4-4-4===x-4===4=4===|7===----7===----7===x-7===7=7===|
D|--------------------------------|7===7-7-7===7-7-7===x-7===7=7===|

       * *     * *                      * *     * *
E|--------------------------------|--------------------------------|
B|--------------------------------|--------------------------------|
G|--------------------------------|--------------------------------|
D|--------------------------------|--------------------------------|
A||4===----4===----4===x-4===4=4===|6===----6===----6===x-6===6=6===|
D||4===4-4-4===4-4-4===x-4===4=4===|6===6-6-6===6-6-6===x-6===6=6===|

       * *     * *                      * *     * *
E|--------------------------------|--------------------------------|
B|--------------------------------|--------------------------------|
G|--------------------------------|--------------------------------|
D||6===----6===----6===x-6===6=6===|--------------------------------|
A||4===4-4-4===4-4-4===x-4===4=4===|7===----7===----7===x-7===7=7===|
D|--------------------------------|7===7-7-7===7-7-7===x-7===7=7===|

       * *     * *                      * *     * *
E|--------------------------------|--------------------------------|
B|--------------------------------|--------------------------------|
G|--------------------------------|--------------------------------|
D|--------------------------------|----------------5===------------|
A||4===----4===----4===x-4===4=4===|6===----6===----3===--4===--6===|
D||4===4-4-4===4-4-4===x-4===4=4===|6===6-6-6===6-6-------4===--6===|

   * * * *                          * * * *
E|--------------------------------|--------------------------------|
B|--------------------------------|--------------------------------|
G|--------------------------------|--------------------------------|
D|----------------6=======--------|----------------6=======--------|
A|--------7=======4=======6=======|--------7=======4=======4=======|
D|6-6-6-6-7=======--------6=======|6-6-6-6-7=======--------4=======| 2x

   * *                       *      * *           *         * *
E|--------------------------------|--------------------------------|
B|--------------------------------|--------------------------------|
G|--------------------------------|--------------------------------|
D|--------------------------------|--------------------------------|
A|----4===--6===7=x-6=x-4===--6===|----4===--6===--7=====6=----4===|
D|0-0-4===--6===7=x-6=x-4===0-6===|0-0-4===--6===0-7=====6=0-0-4===| 2x

   * * * *   * * *   * * * * * * *  * * * *   * * *   * * * * *
E|--------------------------------|--------------------------------|
B|--------------------------------|--------------------------------|
G|--------------------------------|--------------------------------|
D|--------------------------------|----------------------------3=3=|
A|0-0-0-0---0-0-0---0-0-0-0-0-0-0-|0-0-0-0---0-0-0---0-0-0-0-0-1=1=|
D|0-0-0-0---0-0-0---0-0-0-0-0-0-0-|0-0-0-0---0-0-0---0-0-0-0-0-----| 2x

   Time Signature: 2/4
E|----------------|
B|----------------|
G|----------------|
D|----------------|
A|----------------|
D|----------------|

   Time Signature: 4/4
                                        * * * *     * *     * *
E|--------------------------------|--------------------------------|
B|--------------------------------|--------------------------------|
G|--------------------------------|--------------------------------|
D||4===============4=4=--4=4===4===|--------------------------------|
A||2===============2=2=--2=2===2===|1===--------1===----1===----1===|
D|--------------------------------|1===1-1-1-1-1===1-1-1===1-1-1===| 2x

   * *                              * *
E|--------------------------------|--------------------------------|
B|--------------------------------|--------------------------------|
G|--------------------------------|--------------------------------|
D|--------------------------------|--------------------------------|
A|----4p1=--6===--7===--6===--4===|----4p1=--6===--7===--6===--4===|
D|0-0-4p1=--6===--7===--6===--4===|0-0-4p1=--6===--7===--6===--4===| 2x

E|--------------------------------|--------------------------------|
B|--------------------------------|--------------------------------|
G|--------------------------------|--------------------------------|
D|--------------------------------|--------------------------------|
A||4===============================|6===============================|
D||4===============================|6===============================|

E|--------------------------------|--------------------------------|
B|--------------------------------|--------------------------------|
G|--------------------------------|--------------------------------|
D|--------------------------------|--------------------------------|
A||7===============================|6===============6===x-x-6===6===|
D||7===============================|6===============6===x-x-6===6===|

   Time Signature: 2/4
E|----------------|
B|----------------|
G|----------------|
D|----------------|
A|----------------|
D|----------------|

   Time Signature: 4/4
       * *     * *                      * *     * *
E|--------------------------------|--------------------------------|
B|--------------------------------|--------------------------------|
G|--------------------------------|--------------------------------|
D||6===----6===----6===x-6===6=6===|--------------------------------|
A||4===4-4-4===4-4-4===x-4===4=4===|7===----7===----7===x-7===7=7===|
D|--------------------------------|7===7-7-7===7-7-7===x-7===7=7===|

       * *     * *                      * *     * *
E|--------------------------------|--------------------------------|
B|--------------------------------|--------------------------------|
G|--------------------------------|--------------------------------|
D|--------------------------------|--------------------------------|
A||4===----4===----4===x-4===4=4===|6===----6===----6===x-6===6=6===|
D||4===4-4-4===4-4-4===x-4===4=4===|6===6-6-6===6-6-6===x-6===6=6===|

       * *     * *                      * *     * *
E|--------------------------------|--------------------------------|
B|--------------------------------|--------------------------------|
G|--------------------------------|--------------------------------|
D||6===----6===----6===x-6===6=6===|--------------------------------|
A||4===4-4-4===4-4-4===x-4===4=4===|7===----7===----7===x-7===7=7===|
D|--------------------------------|7===7-7-7===7-7-7===x-7===7=7===|

       * *     * *                      * *     * *
E|--------------------------------|--------------------------------|
B|--------------------------------|--------------------------------|
G|--------------------------------|--------------------------------|
D|--------------------------------|----------------5===------------|
A||4===----4===----4===x-4===4=4===|6===----6===----3===--4===--6===|
D||4===4-4-4===4-4-4===x-4===4=4===|6===6-6-6===6-6-------4===--6===|

   * * * *                          * * * *
E|--------------------------------|--------------------------------|
B|--------------------------------|--------------------------------|
G|--------------------------------|--------------------------------|
D|----------------6=======--------|----------------6=======--------|
A|--------7=======4=======6=======|--------7=======4=======4=======|
D|6-6-6-6-7=======--------6=======|6-6-6-6-7=======--------4=======| 2x

   * * * * *   * *   * *   * * * *  * * * * *   * *   * * * * * * *
E|--------------------------------|--------------------------------|
B|--------------------------------|--------------------------------|
G|--------------------------------|--------------------------------|
D|--------------------------------|--------------------------------|
A|0-0-0-0-0---0-0---0-0---0-0-0-0-|0-0-0-0-0---0-0---0-0-0-0-0-0-0-|
D|0-0-0-0-0---0-0---0-0---0-0-0-0-|0-0-0-0-0---0-0---0-0-0-0-0-0-0-| 8x

E|--------------------------------|--------------------------------|
B|--------------------------------|--------------------------------|
G|--------------------------------|--------------------------------|
D|--------------------------------|--------------------------------|
A||4===============================|6===============================|
D||4===============================|6===============================|

E|--------------------------------|--------------------------------|
B|--------------------------------|--------------------------------|
G|--------------------------------|--------------------------------|
D|--------------------------------|--------------------------------|
A||7===============================|6===============6===x-x-6===6===|
D||7===============================|6===============6===x-x-6===6===|

E|--------------------------------|
B|--------------------------------|
G|--------------------------------|
D|--------------------------------|
A|--------------------------------|
D|--------------------------------|

E|--------------------------------|--------------------------------|
B|--------------------------------|--------------------------------|
G|--------------------------------|--------------------------------|
D||6===============================|--------------------------------|
A||4===============================|7===============================|
D|--------------------------------|7===============================|

E|--------------------------------|--------------------------------|
B|--------------------------------|--------------------------------|
G|--------------------------------|--------------------------------|
D|--------------------------------|--------------------------------|
A||4===============================|6===--6===--6===----------------|
D||4===============================|6===--6===--6===----------------|

       * *     * *                      * *     * *
E|--------------------------------|--------------------------------|
B|--------------------------------|--------------------------------|
G|--------------------------------|--------------------------------|
D||6===----6===----6===x-6===6=6===|--------------------------------|
A||4===4-4-4===4-4-4===x-4===4=4===|7===----7===----7===x-7===7=7===|
D|--------------------------------|7===7-7-7===7-7-7===x-7===7=7===|

       * *     * *                      * *     * *
E|--------------------------------|--------------------------------|
B|--------------------------------|--------------------------------|
G|--------------------------------|--------------------------------|
D|--------------------------------|--------------------------------|
A||4===----4===----4===x-4===4=4===|6===----6===----6===x-6===6=6===|
D||4===4-4-4===4-4-4===x-4===4=4===|6===6-6-6===6-6-6===x-6===6=6===|

       * *     * *                      * *     * *
E|--------------------------------|--------------------------------|
B|--------------------------------|--------------------------------|
G|--------------------------------|--------------------------------|
D||6===----6===----6===x-6===6=6===|--------------------------------|
A||4===4-4-4===4-4-4===x-4===4=4===|7===----7===----7===x-7===7=7===|
D|--------------------------------|7===7-7-7===7-7-7===x-7===7=7===|

       * *     * *                      * *     * *
E|--------------------------------|--------------------------------|
B|--------------------------------|--------------------------------|
G|--------------------------------|--------------------------------|
D|--------------------------------|----------------5===------------|
A||4===----4===----4===x-4===4=4===|6===----6===----3===--4===--6===|
D||4===4-4-4===4-4-4===x-4===4=4===|6===6-6-6===6-6-------4===--6===|

   * * * *                          * * * *
E|--------------------------------|--------------------------------|
B|--------------------------------|--------------------------------|
G|--------------------------------|--------------------------------|
D|----------------6=======--------|----------------6=======--------|
A|--------7=======4=======6=======|--------7=======4=======4=======|
D|6-6-6-6-7=======--------6=======|6-6-6-6-7=======--------4=======| 2x

   * *                       *      * *
E|--------------------------------|--------------------------------|
B|--------------------------------|--------------------------------|
G|--------------------------------|--------------------------------|
D|--------------------------------|--------------------------------|
A|----6===--6===7=x-6=x-4===--6===|----6===--6===7=x-6=x-4===6=0===|
D|0-0-6===--6===7=x-6=x-4===0-6===|0-0-6===--6===7=x-6=x-4===6=0===| 2x
Acordes para:
    Colaboração e revisão:
    • joao pedro

    0 comentários

    mostrar mais comentários

    Conseguiu tocar?

    3 tocaram 0 ainda não

    Grave um vídeo tocando Kuusou Mesorogiwi e mande pra gente!

    00:00 / 00:00
    outros vídeos desta música
    repetir qualidade Automático
    Outro vídeos desta música
    00:00 / 00:00
    Automático
    OK