Cifra Club

Aprenda

Stardog Champion

Mother Love Bone

Cifra: Principal (violão e guitarra)
tom: A
#----------------------------------PLEASE NOTE---------------------------------#
#This file is the author's own work and represents their interpretation of the #
#song. You may only use this file for private study, scholarship, or research. #
#------------------------------------------------------------------------------#

F5
1 3 3 x x x G5
3 5 5 x x x G5 (type 2)
x x 5 x 3 3 A5
5 7 7 x x x 
D
x 5 7 7 7 x Dsus4
x 5 7 7 8 x D5
x 5 7 7 x x Dopen
x x 0 2 3 2 
F
1 x 3 2 1 1  G5 open
3 x 0 0 3 3 

Gtr I (E A D G B E) - 'Untitled'
Gtr II (E A D G B E) - 'Untitled'
Gtr III (E A D G B E) - 'Untitled'
Gtr IV (E A D G B E) - 'Untitled'
Gtr V (E A D G B E) - 'Untitled'

             Intro
  Moderately Slow Rock Q=72
  N.C.        N.C.
 4/4
  Gtr I
  <
  W           S S S S S S S  S S S S S S S E   S S S S +S  E. +H
|----------||--------------------------------|-----------------------|
|----------||-5h7----------------------------|-----------------------|
|----------||-5h7-7-7p5-5p0-10s7-5---5-7p5-7-|-5h7-7-7-(7)-5--(5)----|
|-0--------||-0---0-0---0----0---0-0-0-0---0-|-0---0-0-(0)-0--(0)----|
|-0--------||--------------------------------|-----------------------|
|----------||--------------------------------|-----------------------|

  S S S S S S S  S S S S S S S E   S S S S +S  S S S S S S S S S S S
|--------------------------------|------------------------------------|
|---------------10---------------|------------------------------------|
|-5h7-7-7p5-5p0-10---5---5-7p5-7-|-5h7-7-7-(7)-5p0-0-----5-0----------|
|-0---0-----0------0-0-0---0---0-|-0---0-0-(0)-0---0-6S7-----6S5-3-0--|
|--------------------------------|------------------------------------|
|--------------------------------|------------------------------------|
|
|                                  Gtr II
| W                                H                 S S S S S S S S
|--------------------------------|------------------------------------|
|--------------------------------|------------------------------------|
|--------------------------------|-----------------------5-0----------|
|--------------------------------|-------------------6S7-----6S5S3-0--|
|--------------------------------|------------------------------------|
|--------------------------------|------------------------------------|

  S S S S  S  S S  S  S  S S S S S E     S S S S +S  S S S S S S S S S S S
|--------------------------------------|-----------------------------------|
|-----------------10-------------------|-----------------------------------|
|-5h7---7--7--5p0-10-----5---5-7p5-7---|-5h7-7-7-(7)-5p0-0-----5-0---------|
|-0---0-0--0--0-------0--0-0---0---0---|-0---0-0-(0)-0---0-6S7-----6S5S3p0-|
|--------------------------------------|-----------------------------------|
|--------------------------------------|-----------------------------------|
|
| S S S S +S  S S  S +E    E   S S S S   S S S S +S  S S S S S S S S S S S
|--------------------------------------|-----------------------------------|
|--------------------------------------|-----------------------------------|
|-5h7---7-(7)-5-0--7-(7)---------------|-5h7---7-(7)-5p0-0-----------------|
|-0---0-0-(0)-0----0-(0)---0---0-0-0-0-|-0---0-0-(0)-0---0-0-0-0-0-0-0-0-0-|
|--------------------------------------|-----------------------------------|
|--------------------------------------|-----------------------------------|

  S S S S  S  S S  S  S  S S S S S E     S S S S +S  S S S S S S S S S S S
|--------------------------------------|-----------------------------------|
|-----------------10-------------------|-----------------------------------|
|-5h7---7--7--5p0-10-----5---5-7p5-7---|-5h7-7-7-(7)-5p0-0-----5-0---------|
|-0---0-0--0--0-------0--0-0---0---0---|-0---0-0-(0)-0---0-6S7-----6S5S3p0-|
|--------------------------------------|-----------------------------------|
|--------------------------------------|-----------------------------------|
|
| S S S S +S  S S  S +E    S S S S S S   S S S S +S  S S S S S S S S S S S
|--------------------------------------|-----------------------------------|
|--------------------------------------|-----------------------------------|
|-5h7---7-(7)-5p0--7-(7)---------------|-5h7-7-7-(7)-5p0-0-----5-0---------|
|-0---0-0-(0)------0-(0)---0-0-0-0-0-0-|-0---0-0-(0)-0---0-6S7-----6S5S3p0-|
|--------------------------------------|-----------------------------------|
|--------------------------------------|-----------------------------------|

 Ist Verse
  N.C.
  S S S S +E  E Q  +Q     S S S S +E  E S S S S S S S S
|-----------------------|-------------------------------|
|-----------------------|-------------------------------|
|-5h7---7-(7)-5-7--(7)--|-5h7---7-(7)-5-----5-0---------|
|-0---0-0-(0)---0--(0)--|-0---0-0-(0)-0-6S7-----6S5S3p0-|
|-----------------------|-------------------------------|
|-----------------------|-------------------------------|

  S S S S +E  E Q  +Q     S S S S +S  E S S S S S S S S S
|-----------------------|---------------------------------|
|-----------------------|-----------------------0---------|
|-5h7---7-(7)-5-7--(7)--|-5h7---7-(7)-5-0-----5-----------|
|-0---0-0-(0)---0--(0)--|-0---0-0-(0)-0---6S7-----6S5S3p0-|
|-----------------------|---------------------------------|
|-----------------------|---------------------------------|

  C
  S S S S +S  S S S +S   E   S  +S   S  S S
|-------------------------------------------|
|-----------------------10\-10-(10)\--------|
|-5h7---7-(7)-5p0-7-(7)-10\--9--(9)\-5----5-|
|-0---0-0-(0)-0---0-(0)--------------0--0---|
|-------------------------------------------|
|-------------------------------------------|
|
| Gtr III
| S S S S +S  E   S +Q           E      S S
|-------------------------------------------|
|-------------------------------------------|
|-5s7---7-(7)-5---7-(7)----------7\-------5-|
|-5s7-7-7-(7)-5---7-(7)----------7\----/7-5-|
|-----------------5-(5)---------------------|
|-------------------------------------------|

  S S S S +S    S  S  S  S  S  S  S   S   S  S S
|-------------------------------------------------|
|-------------------------------------------------|
|-5h7---7-(7)---5p=0--0--------5p=0---------------|
|-0---0---------0--------6S=7---------6---5\-3p0--|
|-------------------------------------------------|
|-------------------------------------------------|
|
| S S S S +S    S  S  S  S  S  S  S  +S   E    S
|-------------------------------------------------|
|-------------------------------------------------|
|-5s7-7-7-(7)\----10----10-------10-(10)----------|
|-5s7-7-7-(7)\----10----10----12---------12\------|
|-3s5----------12----12----12------------------0--|
|-------------------------------------------------|

  S S S S +S   S S S +S   S S  S  +S   S S S
|--------------------------------------------|
|------------------------10-0-10-(10)\-------|
|-5h7---7-(7)--5---7-(7)-10----9--(9)\-5-5-5-|
|-0---0-0-(0)----0---------------------------|
|--------------------------------------------|
|--------------------------------------------|
|
| S S S S +S   S S S +Q            E     S S
|--------------------------------------------|
|--------------------------------------------|
|-5s7-7-7-(7)\-5---7-(7)-----------7\----5s7-|
|-5s7-7-7-(7)\-5-0-7-(7)-----------7\----5s7-|
|-3s5--------------5-(5)---------------------|
|--------------------------------------------|

  S S S S  S  S S S S S S S S S S S
|-----------------------------------|
|-----------------------------------|
|-5h7---7p=5--5p0-0-----5p0---------|
|-0---0-------0-----6s7-----7-5s3p0-|
|-----------------------------------|
|-----------------------------------|
|
| S S S S +S  E   S S S S S S S S S
|-----------------------------------|
|-----------------------------------|
|-5h7-7-7-(7)-5---0-----5p0---------|
|-5h7-7-7-(7)-5---0-6S7-----7-5s3p0-|
|-----5-----------------------------|
|-----------------------------------|

  G5         A5      G5  F5    G5        F5   D
  Q  E S S S S S S S E   S   S S S S +S  E    S +Q   E S S
|--------------------------|-------------------------------|
|--------------------------|------------------7-(7)--7-----|
|--------------------------|------------------7-(7)--7---0-|
|-5--5-----------7---5---3-|-3s5-5-5-(5)-3/---7-(7)--7---0-|
|-5--5-3---5s7-7-7---5---3-|-3s5-5-5-(5)-3/---5-(5)--5-0---|
|-3--3---3-3s5-5-5---3---1-|-1s3-3-3-(3)-1/----------------|
|
| Q  Q     S S S S S S S S   S S S S +S  S  S S +Q   E S S
|-3--3---------------------|-------------------------------|
|-3--3---------------------|------------------7-(7)--7-----|
|-0--0---------------------|------------------7-(7)--7-7p0-|
|-0--0-----5s7-7-7---5---3-|-3s5-5-5-(5)-3/-0-7-(7)--7-7p0-|
|----------5s7-7-7---5---3-|-3s5-5-5-(5)-3/---5-(5)--5-----|
|-3--3-----3s5-5-5---3-0-1-|-1s3-3-3-(3)-1/----------------|

 Chorus
  G5 open     A5        G5 F5    G5        F5 D
  Q  E S S S S S S +S  E S   S S S S +S  E S +Q    Q
|--------------------------|---------------------------|
|------0-------------------|---------------7-(7)-------|
|--------0-----------------|---------------7-(7)-------|
|-5--5-----5s7-7-7-(7)-5-3-|-3s5-5-5-(5)-3-7-(7)-------|
|-5--5-----5s7-7-7-(7)-5-3-|-3s5-5-5-(5)-3-5-(5)--15\--|
|-3--3-----3s5-5-5-(5)-3-1-|-1s3-3-3-(3)-1--------15\--|
|
| Q  Q     S S S S +S  E S   S S S S +S  E S +Q    Q
|-3--3---------------------|---------------------------|
|-3--3-----------5-(5)-----|---------------7-(7)-------|
|-0--0-----------6-(6)-----|---------------7-(7)---7---|
|-0--0-----5s7-7-7-(7)-5-3-|-3s5-5-5-(5)-3-7-(7)---7---|
|----------5s7-7-7-(7)-5-3-|-3s5-5-5-(5)-3-5-(5)---5---|
|-3--3-----3s5-5-5-(5)-3-1-|-1s3-3-3-(3)-1-------------|

 2nd Verse
  N.C.
  S S S S +E  E Q  +Q     S S S S +E  E S S S S S S S S
|-----------------------|-------------------------------|
|-----------------------|-------------------------------|
|-5h7---7-(7)-5-7--(7)--|-5h7---7-(7)-5-----5-0---------|
|-0---0-0-(0)---0--(0)--|-0---0-0-(0)-0-6S7-----6S5S3p0-|
|-----------------------|-------------------------------|
|-----------------------|-------------------------------|

  S S S S +E  E Q  +Q     S S S S +S  E S S S S S S S S S
|-----------------------|---------------------------------|
|-----------------------|-----------------------0---------|
|-5h7---7-(7)-5-7--(7)--|-5h7---7-(7)-5-0-----5-----------|
|-0---0-0-(0)---0--(0)--|-0---0-0-(0)-0---6S7-----6S5S3p0-|
|-----------------------|---------------------------------|
|-----------------------|---------------------------------|

    D5          D5                 D5                  N.C.
                                                              ~~
  S S S S +S  E S +Q   E   S S   S S S S S   S S  S  S  S  S  S  +E    S S
|------------------------------|--------------------------------------------|
|------------------------------|--------------------------------------------|
|-5s7---7-(7)-5-7-(7)--7\----5-|-5s7---7-7----------------10----------------|
|-5s7---7-(7)-5-7-(7)--7\-/x-5-|-5s7-0-7-7-------------10----12-(12)-----0--|
|-----5-------------------/x---|---------------8h10S12---------------/12----|
|------------------------------|-----------/10------------------------------|

  S S S S +S  S S S +Q   E   S S   S S S S +S  E  S  S S S S S  S E
|--------------------------------|-----------------------------------|
|--------------------------------|---------------(0)-----------------|
|-5-7---7-(7)-5---7-(7)--7\----7-|-5h7---7-(7)-5-(3)-----5p0---------|
|-5-7---7-(7)-5---7-(7)--7\-/x-7-|-5h7---7-(7)-5-----6s7-----7s12----|
|-3-5-5---------5-----------/x---|-----5--------------------------0--|
|--------------------------------|-----------------------------------|

  Q  e S S +Q    Q     S S S S  S E S S S S S S S S S
|-1--------------3---|--------------------------------|
|-1--------------3---|--------------------------------|
|----x-----------0---|----------------------4-4-----7-|
|-3--x-3-5-(5)--(5)--|-5s7-7-7\---5-3-3s5-5-5-5-3-0-7-|
|-3--x-3-5-(5)--(5)--|-5s7-7-7\---5-3-3s5-5-5-5-3-0-5-|
|-1--x-1-3-(3)--(3)--|-3s5-5-5\---3-1-1s3-3-3-3-1-----|

 2/4            4/4
  +E  E  E  E    Q  E S S +Q    E  E   S S S S  S E S +Q   S S S S
|-----x\------||----------------3----|-----------------------------|
|-----x\------||----------------3--3-|-----------------------------|
|-(7)-x\-7\---||-------------------4-|--------------7-(7)----------|
|-(7)----7\-x-||-3--x-3-5-(5)--(5)-5-|-5s7-7-7\---5-7-(7)----------|
|-(5)----5\-x-||-3--x-3-5-(5)--(5)-5-|-5s7-7-7\---5-5-(5)------0---|
|-----------x-||-1--x-1-3-(3)--(3)---|-3s5-5-5\---3--------5s3---0-|

                                              Interlude
                                               N.C.
                                               Gtr III
  Q  E S S +Q   E E   S S S S  S E S +H        S S S S +S  E  S  +Q.   S S
|---------------3---|-----------------------||------------------------------|
|---------------3-3-|-----------------------||------------------------------|
|-----------------4-|--------------7-(7)----||-5h7-7-7-(7)-5-10-(10)---7-9--|
|-3--x-3-5-(5)--5-5-|-5S7-7-7\---5-7-(7)----||-0---0-0-(0)-0--0--(0)---0-0--|
|-3--x-3-5-(5)--5-5-|-5s7-7-7\---5-5-(5)----||------------------------------|
|-1--x-1-3-(3)--3---|-3s5-5-5\---3----------||------------------------------|

  +Q.   S S +H       S S S S +S  E  S  +Q.   S S   +Q.   S S +H
|------------------|-----------------------------|------------------|
|------------------|-----------------------------|------------------|
|-(9)---7-7-(7)----|-5-7-7-7-(7)-5-10-(10)---7-9-|-(9)---7-7-(7)----|
|-(0)---0-0-(0)----|-0---0-0-(0)-0--0--(0)---0-0-|-(0)---0-0-(0)----|
|------------------|-----------------------------|------------------|
|------------------|-----------------------------|------------------|

  S S S S +S  E  S  +Q.    S  S    +Q.   S S +H
|-------------------------------|-------------------|
|-------------------------------|-------------------|
|-5h7-7-7-(7)-5-10-(10)---10-12-|-(12)---7-7-(7)----|
|-0---0-0-(0)-7--0--(0)----0--0-|--(0)---0-0-(0)----|
|-------------------------------|-------------------|
|-------------------------------|-------------------|

  S S S S +S  E  S  +Q.   S S   +Q.   S S +H
|-----------------------------|------------------|
|-----------------------------|------------------|
|-5h7-7-7-(7)-5-10-(10)---7-9-|-(9)---7-7-(7)----|
|-7---0-0-(0)-0--0--(0)---0-0-|-(0)---0-0-(0)----|
|-----------------------------|------------------|
|-----------------------------|------------------|

  S S S S +S  E  S  +Q.    S  S    +Q.    S  S  S  S  S  S  S  S S S
|-------------------------------|------------------------------------|
|-------------------------------|------------------------------5-5-5-|
|-5h7-7-7-(7)-5-10-(10)---10-12-|-(12)---12-14-14-14-14-14-14\-5-5-5-|
|-0---0-0-(0)-7--0--(0)----0--0-|--(0)----0--0--0--0--0--0--0\-0-0-0-|
|-------------------------------|------------------------------------|
|-------------------------------|------------------------------------|

 Guitar Solo
  N.C.
  Gtr I
   S  S  S  S  +S   S S  S  +S   S S  S  +E     S  S
|----------------------------------------------------|
|----------------------------------------------------|
|--5S=7--7--7--(7)--5S7--7--(7)--8S7--7--(7)----4S=8-|
|----------------------------------------------------|
|--3S=5--5--5--(5)--3S5--5--(5)--6S5--5--(5)---------|
|----------------------------------------------------|
|
| Gtr I
|  S  S  S  S  +S   E    S  +S   E    S  +S   E    S
|----------------------------------------------------|
|--8S10-10-10-(10)--8---10-(10)-11---10-(10)--8----8-|
|----------------------------------------------------|
|-10S12-12-12-(12)-10---12-(12)-13---12-(12)-10---10-|
|----------------------------------------------------|
|--8S10-10-10-(10)--8---10-(10)-11---10-(10)--8----8-|

                                           ~~~~~~~~
   S  S  S  S  S  E     S  S    +S   S  S  E  S  S
|---------------------------------------------------|
|---------------------------------------------------|
|--7S=8S=7------------------------------------------|
|-----------8--7S=5-----7--7b9==(7)r=7p=5--7--7--7--|
|---------------------------------------------------|
|---------------------------------------------------|
|
|  S  S  S  S  S  S  S  S  S     S   S  S  E  S  S
|---------------------------------------------------|
|---------------------------------------------------|
|---------------------------------------------------|
|-10S12-12-12-12-12-12-12-12----12--12-12-12-12-12--|
|---------------------------------------------------|
|--8S10-10-10-10-10-10-10-10----10--10-10-10-10-10--|

   S  S  S  S  +S   S S  S  +S   S S  S  +S   E  S
|--------------------------------------------------|
|--------------------------------------------------|
|--5S=7--7--7--(7)--5----7--(7)--8S7--7--(7)--2S=8-|
|---------------------0----------------------------|
|--3S=5--5--5--(5)--3----5--(5)--6S5--5--(5)-------|
|--------------------------------------------------|
|
|  S  S  S  S  +S   E    S  +S   E    S  +S   E  S
|--------------------------------------------------|
|--8S10-10-10-(10)--8---10-(10)-11---10-(10)--8--8-|
|--------------------------------------------------|
|-10S12-12-12-(12)-10---12-(12)-13---12-(12)-10-10-|
|--------------------------------------------------|
|--8S10-10-10-(10)--8---10-(10)-11---10-(10)--8--8-|

               |----3----|
   S  S  S  S  E    E    E     E       E     Q
|-----------------------------------------------------|
|-----------7--7-----------------------------8--------|
|--7h=8p=7----------5----7-----7b9-----7----(7)-------|
|-----------------------------------------------------|
|-----------------------------------------------------|
|-----------------------------------------------------|
|
|  S  S  S  S  S  S    S    S  S    S  S  S  E   S  S
|-----------------------------------------------------|
|-----------------------------------------------------|
|-----------------------------------------------------|
|-10S12-12-12-12-12---12---12-12---12-12-12-12--12-12-|
|-----------------------------------------------------|
|--8S10-10-10-10-10---10---10-10---10-10-10-10--10-10-|

   ~~~~~~~~~~~~~~~~~~~~~
   E     E      E     E      E      E      E     S T T
|------------------------------------------------------|
|------------------------------------------9\------7-7-|
|--8-----8------8-----8------9-----16------9\------7-7-|
|------------------------------------------------0-----|
|------------------------------------------------------|
|------------------------------------------------------|
|
|  S  S  S  S  +S   E    S  +S   E     S  +S   S S S
|------------------------------------------------0-0---|
|------------------------------------------------0-0---|
|------------------------------------------------------|
|------------------------------------------------------|
|-10S12-12-12-(12)-10---12-(12)-13----12-(12)-10-------|
|--8S10-10-10-(10)--8---10-(10)-11----10-(10)--8-------|

                                               ~~
   S  S  S  S a  S  S  S  S  E.          S  S  E     S
|------------------------------------------------------|
|--7--8--7--8-8s10-10--8-10-10b12r======10p=8-10----10-|
|--7--9--7--9-9s11-11--9-11-11b12r======11p=9-11----11-|
|------------------------------------------------------|
|------------------------------------------------------|
|------------------------------------------------------|
|
|  S  S  S  S    S  S  S  S  S     S  S  S  S  S  S  S
|------------------------------------------------------|
|------------------------------------------------------|
|------------------------------------------------------|
|-10S12-12-12---12-12-12-12-12----12-12-12-12-12-12-12-|
|------------------------------------------------------|
|--8S10-10-10---10-10-10-10-10----10-10-10-10-10-10-10-|

   S  S  S  S  +S   S   S   S  +S   S   S   S  +S   S  S  S
|-----------------------------------------------------------|
|-----------------------------------------------------------|
|--5S=7--7--7--(7)--5S==7---7--(7)--8S==7---7--(7)--5--5--5-|
|-----------------------------------------------------------|
|--3S=5--5--5--(5)--3S==5---5--(5)--6S==5---5--(5)--3--3--3-|
|-----------------------------------------------------------|
|
|  S  S  S  S  +S   S  +S   S  +S   S  +S   S  +S   S  S  S
|-----------------------------------------------------------|
|--8S10-10-10-(10)--8--(8)-10-(10)-11-(11)-10-(10)--8--8--8-|
|-----------------------------------------------------------|
|-10S12-12-12-(12)-10-(10)-12-(12)-13-(13)-12-(12)-10-10-10-|
|-----------------------------------------------------------|
|--8S10-10-10-(10)--8--(8)-10-(10)-11-(11)-10-(10)--8--8--8-|

   S  S  S  S   S   E  S S S S S S S S S
|---------------8---8\--------------------|
|---------------8---8\--------------------|
|--5S=7--7--7---9---9\-0-----5p0----------|
|------------------------6S7-----6S5S3p0--|
|--3S=5--5--5-----------------------------|
|-----------------------------------------|
|
|  S  S  S  S  +S   E  S S S S S S S S S
|----------10-(10)--8\--------------------|
|--8S10-10-10-(10)--8\--------------------|
|----------------------------5p0----------|
|-10S11-11-12-(12)-10\-0-6s7-----6S5S3p0--|
|-----------------------------------------|
|--8S10-10-10-(10)--8\--------------------|

  F5     G5     G5 (type 2)A5       G5  D
  Q  E S S +Q   E S S   S S S S  S S S S +Q   S S S S
|---------------3-----|-------------------------------|
|---------------3-----|----------------7-(7)--8p7-----|
|---------------------|-4s6-6-6\---4---7-(7)--7-------|
|-3--x-3-5-(5)--5-----|-4s7-7-7\---5-0-7-(7)--7-------|
|-3--x-3-5-(5)--5-5-5-|-5s7-7-7\---5---5-(5)--5-------|
|-1--x-1-3-(3)--3-3-3-|-3s5-5-5\---3--------------5s1-|

  F5     G5     G5 (type 2)A5       G5 D
  Q  E S S +Q   E S S   S S S S  S E S +Q   E E
|---------------3-----|-------------------------|
|---------------3-----|--------------7-(7)--7-x-|
|---------------------|-4S6-6-6\---4-7-(7)--7-x-|
|-3--x-3-5-(5)--5-----|-4S7-7-7\---5-7-(7)--7-x-|
|-3--x-3-5-(5)--5-5-5-|-5S7-7-7\---5-5-(5)--5-x-|
|-1--x-1-3-(3)--3-3-3-|-3S5-5-5\---3------------|

  F5     G5     G5 G5  ype 2)A5      G5 D
  Q  E S S +Q   E S S   S S S S S E S +Q   E E
|---------------3-----|------------------------|
|---------------3-----|-------------7-(7)--8-x-|
|---------------------|-4S6-6-6-6-4-7-(7)--7-x-|
|-3--x-3-5-(5)--5-----|-4S7-7-7-7-5-7-(7)--7-x-|
|-3--x-3-5-(5)--5-5-5-|-5S7-7-7-7-5-5-(5)--5-x-|
|-1--x-1-3-(3)--3-3-3-|-3S5-5-5-5-3------------|

  F5      G5     G5 (type G5 A5      G5 D
  E E E S S +Q   E S S   S S S S S E S +H
|----------------3-x-x-|----------------------|
|----------------3-x-x-|-------------7-(7)----|
|----------------------|-------7-----7-(7)----|
|-3-3-x-3-5-(5)--5-x-x-|-5-7-7-----5-7-(7)----|
|-3-3-x-3-5-(5)--------|-5-7-7-7---5-5-(5)----|
|-1-1-x-1-3-(3)--------|-3-5-5-5---3----------|

  Gtr V
  E S S S S S S S S S S S S S S   S S S S E S S E S S S S S S
|-2-0-2-----2---0-0---2-----0-0-|-----0---0-0-0-3-0---3-------|
|-3-3-3---3-3---3-----3-3-------|---3-3---3-3-3-3---3---3-----|
|-2-2---2-----2-----2-----2-----|-----------2-2-0---2-----2---|
|-0-----0-----------------------|-3-----0---0-0-0-----------0-|
|-------------------------------|-----------------------------|
|-------------------------------|-----------------------------|

  S S S S E S S S S S S S S S S   S S S S S S S S S S S S S S S S
|-0-2-----2-0-----0-----0-----0-|-0---0---1-------0-----------0----|
|-3-3---3-3---3---3-3-3---3-----|-3-3-------3---3---3---3-0-3---3--|
|-2---2---2-----2---2-----2-2---|-2-----2-----2---0---2---0--------|
|-0-------0-----0---------0-----|-3-----------------------0--------|
|-------------------------------|----------------------------------|
|-------------------------------|----------------------------------|

  S S S S E S S S S S S S S S S   S S S S E S S S S E S S S S
|-2-0-----2---2-------------0---|-0-----0---0---------3-------|
|-3---3-3-3-----3-----3---3-----|-3-3-3---3-3-3---3-----3---3-|
|-2---2---2-2-----2-2---------2-|-2-2-----2-----2---2-----2---|
|-0---0---0-0-------0---0-------|-3-------0-------------------|
|-------------------------------|-----------------------------|
|-------------------------------|-------------------3---------|

 Out-chorus
  Dopen                       F                   G5 open
  Gtr V
  E E   E S S S S E   S S E    E  E     E     S S   S   S  E     S  S  E
  | |   | | | | | |   | | |    |  |     |     | |   |   |  |     |  |  |
  / /   / / / / / /   / / /    /  /     /     / /   /   /  /     /  /  /

  Gtr II
  E S S E E   S S S S S S E    E  S  S  S  S  E    +S   S  S  S  S  S  E
|---------------------------|---------------------------------------------|
|---7h8p7-------7h8p7-------|----10h11p10--------------12h13p12----12-12\-|
|-7-------7---7-------7---7-|-10----------10-12---(12)----------12-12-12\-|
|-0-----------0---------7---|---------------------------------------------|
|---------------------------|---------------------------------------------|
|---------------------------|---------------------------------------------|

  Dopen
  E E   E   S  S   S  S E   S  S  E
  | |   |   |  |   |  | |   |  |  |
  / /   /   /  /   /  / /   /  /  /

  E S S S S S  S  +S  S S S S  S  E
|-----------------------------10----|
|---7h8p7-----10-(10)-7-8p7---------|
|-7-------7-----------------7----10-|
|-0---------7-----------------------|
|-----------------------------------|
|-----------------------------------|

  F                   G5 open
   E  E     E    S  S   S   S  E     S  S E
   |  |     |    |  |   |   |  |     |  | |
   /  /     /    /  /   /   /  /     /  / /

   E  S  S  S  E    S  +S   S  S  S  S  E     S
|-------------------------------------------------|
|----10h11p10--------------12h13-12----12---(12)\-|
|-10----------10---12-(12)-------12-12-------12\--|
|-10----------------------------------------------|
|-------------------------------------------------|
|-------------------------------------------------|

  D open
   E  E     E     S  S  S  S  E     S  S  E
   |  |     |     |  |  |  |  |     |  |  |
   /  /     /     /  /  /  /  /     /  /  /

   E  S  S  S  S  S  S  S  S  S  S  S  S  E
|-------------------------------------10----|
|----------------------10-------------10-10-|
|----11h12-11-------11----11-12p11----------|
|-12-12-------12----12-------------12-------|
|----------------12-------------------------|
|-------------------------------------------|

  F                    G5 open
   E  E     E     S  S   S   S  E     S  S  E
   |  |     |     |  |   |   |  |     |  |  |
   /  /     /     /  /   /   /  /     /  /  /

   E  S  S  S  S  S  S  +S   S  S  S  S  S  E
|-----------------------------------------------|
|----10h11p10---------------12h13-12----12-12\--|
|-10-10-------10s12-12-(12)-12----12-12----12\--|
|-10--------------------------------------------|
|-----------------------------------------------|
|-----------------------------------------------|

  D open
   E  E     E     S  S  S  S  E     S  S  E
   |  |     |     |  |  |  |  |     |  |  |
   /  /     /     /  /  /  /  /     /  /  /

   E  S  S  S  S  S  S  S  S  S  S  S  S  E
|-------------------------------------------|
|-------------------10-10-------------10-10-|
|----11h12p11----11-------11-12p11----11-11-|
|-12-12-------12-------------12----12-------|
|-------------------------------------------|
|-------------------------------------------|

  F                    G5 open
   E  E     E     S  S  S  S  E     S  S  E
   |  |     |     |  |  |  |  |     |  |  |
   /  /     /     /  /  /  /  /     /  /  /

   E  S  S  S  S  S  S  S  S  S  S  S  S  E
|---------------------------------------------|
|----10h11-10-------------12h13-12----12------|
|-10----------10h12-12-12-------12-12-12------|
|-10-------------------------------------12\--|
|---------------------------------------------|
|---------------------------------------------|

  D open
   E     E     E     S  S  S  S  E     S  S  E
   |     |     |     |  |  |  |  |     |  |  |
   /     /     /     /  /  /  /  /     /  /  /

   S  S  S  S  S  S  S  S  S  S  S  S  S  S  E
|----------------------------------------------|
|-10-------10-------10-------10-------10-------|
|----11-------11-------11-------11-------11-11-|
|-------12-------12-------12-------12-------12-|
|----------------------------------------------|
|----------------------------------------------|

  F                       G5 open
   E     E     E     S  S  S  S  E     S  S  E
   |     |     |     |  |  |  |  |     |  |  |
   /     /     /     /  /  /  /  /     /  /  /

   S  S  S  S  S  S  S  S  S  S  S  S  S  S  E
|-----------------------------------------------|
|-13-------13-------------15-------15-------15\-|
|----14-------14----14-------16-------16--------|
|-------15-------15----17-------17-------17-----|
|-----------------------------------------------|
|-----------------------------------------------|

  D open
   E     E     E     S  S  S  S  E     S  S  E
   |     |     |     |  |  |  |  |     |  |  |
   /     /     /     /  /  /  /  /     /  /  /

   S  S  S  S  S  S  S  S  S  S  S  S  S  S  S  S
|-------------------------------------------------|
|----10-------10-------10-------10-------10-------|
|-------11-------11-------11-------11-------11----|
|-12-------12-------12-------12-------12-------12-|
|-------------------------------------------------|
|-------------------------------------------------|

  F                       G5 open
   E     E     E     S  S  S  S  E     S  S  E
   |     |     |     |  |  |  |  |     |  |  |
   /     /     /     /  /  /  /  /     /  /  /

   S  S  S  S  S  S  S  S  S  S  S  S  S  S  E
|-----------------------------------------------|
|-13-------13-------13----15-------15-------15--|
|----14-------14-------------16-------16--------|
|-------15-------15----17-------17-------17-----|
|-----------------------------------------------|
|-----------------------------------------------|

  D open
   E     E     E     S  S  S  S  E     S  S  E
   |     |     |     |  |  |  |  |     |  |  |
   /     /     /     /  /  /  /  /     /  /  /

   S  S  S  S  S  S  S  S  S  S  S  S  S  S  S  S
|-------------------------------------------------|
|----10-------10-------10-------10-------10-------|
|-------11-------11-------11-------11-------11----|
|-12-------12-------12-------12-------12-------12-|
|-------------------------------------------------|
|-------------------------------------------------|

  F                       G5 open
   E     E     E     S  S  S  S  E     S  S  E
   |     |     |     |  |  |  |  |     |  |  |
   /     /     /     /  /  /  /  /     /  /  /

   S  S  S  S  S  S  S  S  S  S  S  S  S  S  E
|------------------------------------------------|
|-13-------13-------13----15-------15-------15\--|
|----14-------14-------16----16-------16---------|
|-------15-------15-------------17-------17------|
|------------------------------------------------|
|------------------------------------------------|

  D open
   E     E     E     S  S  S  S  E     S  S  E
   |     |     |     |  |  |  |  |     |  |  |
   /     /     /     /  /  /  /  /     /  /  /

   S  S  S  S  S  S  S  S  S  S  S  S  S  S  S  S
|-------------------------------------------------|
|----10-------10-------10-------10-------10-------|
|-------11-------11-------11-------11-------11----|
|-12-------12-------12-------12-------12-------12-|
|-------------------------------------------------|
|-------------------------------------------------|

  F                       G5 open
   E     E     E     S  S  S  S  E     S  S  E
   |     |     |     |  |  |  |  |     |  |  |
   /     /     /     /  /  /  /  /     /  /  /

   S  S  S  S  S  S  S  S  S  S  S  S  S  S  E
|------------------------------------------------|
|-13-------13-------13s15-15-------15------------|
|----14-------14-------------16-------16---------|
|-------15-------15-------------17-------17-17\--|
|------------------------------------------------|
|------------------------------------------------|

  D open
   W                               W
   |
   /

  Gtr I
                                               ~~~~~~~~~~
                     |3-|
   S  S  S  S  +Q    E  Q  +Q      S      +S   Q.    +H
|-------------------------------|---------------------------*|
|-------------------------------|---------------------------*|
|-11h12p11----------12-11-(11)--|-12b14==(12)r12----(12)----*|
|----------12-(12)--------------|---------------------------*|
|-------------------------------|---------------------------*|
|-------------------------------|---------------------------*|

--------------------------------------------------------------------------------

Duration Legend
---------------
W - whole; H - half; Q - quarter; E - 8th; S - 16th; T - 32nd; X - 64th; a - acciaccatura
+ - note tied to previous; . - note dotted; .. - note double dotted
Uncapitalized letters represent notes that are staccato (1/2 duration)
Irregular groupings are notated above the duration line
Duration letters will always appear directly above the note/fret number it represents the
duration for.  Duration letters with no fret number below them represent rests.  Multi-
bar rests are notated in the form Wxn, where n is the number of bars to rest for.  Low
melody durations appear below the staff

Tablature Legend
----------------
 h   - hammer-on
 p   - pull-off
 b   - bend
 pb  - pre-bend
 r   - bend release (if no number after the r, then release immediately)
 /\  - slide into or out of (from/to "nowhere")
 s   - legato slide
 S   - shift slide
 - natural harmonic
[n]  - artificial harmonic
n(n) - tapped harmonic
 ~   - vibrato
 tr  - trill
 T   - tap
 TP  - trem. picking
 PM  - palm muting
\n/  - tremolo bar dip; n = amount to dip
 \n  - tremolo bar down
 n/  - tremolo bar up
/n\  - tremolo bar inverted dip
 =   - hold bend; also acts as connecting device for hammers/pulls
  - volume swell (louder/softer)
 x   - on rhythm slash represents muted slash
 o   - on rhythm slash represents single note slash

Misc Legend
-----------
 |  - bar
||  - double bar
||o - repeat start
o|| - repeat end
*|  - double bar (ending)
 :  - bar (freetime)
 $  - Segno
 &  - Coda
Tempo markers -  = BPM(8/16=s8/s16), where s8 = swing 8ths, s16 = swing 16ths
Composição de Andrew Wood / Bruce Ian Fairweather / Greg A. Gilmore / Jeffrey Allen Ament / Stone Gossard
Colaboração e revisão:
  • dimas lopes
1.262 exibições
    • ½ Tom
    • A
    • Bb
    • B
    • C
    • Db
    • D
    • Eb
    • E
    • F
    • F#
    • G
    • Ab
  • Adicionar à lista

    0 comentários

    Ver todos os comentários

    Conseguiu tocar?

    0 Tocaram 0 Ainda não

    Grave um vídeo tocando Stardog Champion e nos envie!

    00:00 / 00:00
    Outros vídeos desta música
    Repetir Qualidade Automático
    Outros vídeos desta música
    00:00 / 00:00
    Automático

    Cifra Club Pro

    Aproveite o Cifra Club com benefícios exclusivos e sem anúncios
    Cifra Club Pro
    Aproveite o Cifra Club com benefícios exclusivos e sem anúncios
    OK