Cifra Club

No Pain No Game

Nano

Cifra: Principal (violão e guitarra)
tom: G
Afinação da Guitarra: D,A,D,G,B,E
Intro:

GUITAR 1:

E|-------------------------------------------------|--------------------------------------------------|
B|-------------------------------------------------|--------------------------------------------------|
G|--6---x--x--x---x--x--x---8---x--x--x---x--x--x--|--10---x--x--x---x--x--x---3---x--x--x---x--x--x--|
D|--6---x--x--x---x--x--x---8---x--x--x---x--x--x--|--10---x--x--x---x--x--x---3---x--x--x---x--x--x--|
A|--4---x--x--x---x--x--x---6---x--x--x---x--x--x--|--8----x--x--x---x--x--x---1---x--x--x---x--x--x--|
D|-------------------------------------------------|--------------------------------------------------|

GUITAR 1:

E|----------------------------------------------------|--------------------------------------------------------|------|---------------|
B|----------------------------------------------------|--------------------------------------------------------|------|---------------|
G|--3---x--x--x---x--x--x---(5)-x--x--x---x--x--x--x--|--(7)-x--x--x---x--x--x--x---(9)--x--x--x---x--x--x--x--|------|--3----5----6--|
D|--3---x--x--x---x--x--x---(5)-x--x--x---x--x--x--x--|--(8)-x--x--x---x--x--x--x---(10)-x--x--x---x--x--x--x--|------|--3----5----6--|
A|--1---x--x--x---x--x--x---(3)-x--x--x---x--x--x--x--|--(5)-x--x--x---x--x--x--x---(7)--x--x--x---x--x--x--x--|------|--1----3----4--|
D|----------------------------------------------------|--------------------------------------------------------|------|---------------|

GUITAR 1:

  /~~~~~~~~~~~~~~~~~~~~~~~~~REPEAT~x3~~/~~REPITE~x3~~~~~~~~~~~~~~~~~~~~~~~~~\
E|-------------------------------------|-------------------------------------|
B|-------------------------------------|-------------------------------------|
G|-------------------------------------|-------------------------------------|
D|--1--3--3---1--1--3--3---1--1--3--6--|--1--3--3---1--1--3--3---1--1--3--6--|
A|--1--3--3---1--1--3--3---1--1--3--6--|--1--3--3---1--1--3--3---1--1--3--6--|
D|--1--3--3---1--1--3--3---1--1--3--6--|--1--3--3---1--1--3--3---1--1--3--6--|

Verse/Estrofe:

GUITAR 1:

E|---------------------------------------------|---------------------------------------------|
B|---------------------------------------------|---------------------------------------------|
G|---------------------------------------------|---------------------------------------------|
D|--(1)--(3)-x---(1)-x--(3)-x---(1)-x--(3)--6--|--(1)--(3)-x---(1)-x--(3)-x---(1)-x--(3)--6--|
A|--(1)--(3)-x---(1)-x--(3)-x---(1)-x--(3)--6--|--(1)--(3)-x---(1)-x--(3)-x---(1)-x--(3)--6--|
D|--(1)--(3)-x---(1)-x--(3)-x---(1)-x--(3)--6--|--(1)--(3)-x---(1)-x--(3)-x---(1)-x--(3)--6--|

GUITAR 1:

E|---------------------------------------------|--------------------------------------------|
B|---------------------------------------------|--------------------------------------------|
G|---------------------------------------------|--------------------------------------------|
D|--(1)--(3)-x---(1)-x--(3)-x---(1)-x--(3)--6--|--(1)--(3)-x---(1)-x--(3)-x---(1)-x--(3)-x--|
A|--(1)--(3)-x---(1)-x--(3)-x---(1)-x--(3)--6--|--(1)--(3)-x---(1)-x--(3)-x---(1)-x--(3)-x--|
D|--(1)--(3)-x---(1)-x--(3)-x---(1)-x--(3)--6--|--(1)--(3)-x---(1)-x--(3)-x---(1)-x--(3)-x--|


Pre-Chorus/Pre-Estribillo:


GUITAR 1:

E|------------------------|------------------------|-----------------------------------------------------------------|
B|------------------------|------------------------|-----------------------------------------------------------------|
G|--6--6--6---------------|------------------------|--(5)-x--x--x---x--x--x--x-(6)-x--x--x---x--x--x--x--------------|
D|--6--6--6------1--1--1--|--3--3--3------6--6--6--|--(5)-x--x--x---x--x--x--x-(6)-x--x--x---x--x--x--x---1---1---1--|
A|--4--4--4------1--1--1--|--3--3--3------6--6--6--|--(3)-x--x--x---x--x--x--x-(4)-x--x--x---x--x--x--x---1---1---1--|
D|---------------1--1--1--|--3--3--3------6--6--6--|------------------------------------------------------1---1---1--|


Chorus/Estribillo:

GUITAR 1:

E|------------|------------|
B|------------|------------|
G|--6---------|------------|
D|--6------1--|--3------3--|
A|--4------1--|--3------3--|
D|---------1--|--3------3--|

GUITAR 1:

E|------------|---------------|
B|------------|---------------|
G|--6---------|---------------|
D|--6------1--|--3--3--1---3--|
A|--4------1--|--3--3--1---3--|
D|---------1--|--3--3--1---3--|

GUITAR 1:

E|------------|------------|
B|------------|------------|
G|--6---------|------------|
D|--6------1--|--3------3--|
A|--4------1--|--3------3--|
D|---------1--|--3------3--|

GUITAR 1:

E|----------------------------------------------------|--------------------------------------------------------|------|---------------|
B|----------------------------------------------------|--------------------------------------------------------|------|---------------|
G|--3---x--x--x---x--x--x---(5)-x--x--x---x--x--x--x--|--(7)-x--x--x---x--x--x--x---(9)--x--x--x---x--x--x--x--|------|--3----5----6--|
D|--3---x--x--x---x--x--x---(5)-x--x--x---x--x--x--x--|--(8)-x--x--x---x--x--x--x---(10)-x--x--x---x--x--x--x--|------|--3----5----6--|
A|--1---x--x--x---x--x--x---(3)-x--x--x---x--x--x--x--|--(5)-x--x--x---x--x--x--x---(7)--x--x--x---x--x--x--x--|------|--1----3----4--|
D|----------------------------------------------------|--------------------------------------------------------|------|---------------|


GUITAR 2:

E|---------------------------------------------|----------------------------------|
B|---------------------------------------------|------------------11------11--13--|
G|--------------13--12--13--12-----------------|------13--12--13------13----------|
D|--10--11--13------------------13--10--10--11-|--13------------------------------|
A|---------------------------------------------|----------------------------------|
D|---------------------------------------------|----------------------------------|


GUITAR 2:

E|-----------------------------|----------|------------------------------|------------------------------|
B|--13------------------13-----|--11------|------------------------------|------13--11--13--11----------|
G|------10--13--------------13-|------13--|--10--12--13--13--12------10--|----------------------13--13--|
D|------------------13---------|----------|----------------------13------|--13--------------------------|
A|-----------------------------|----------|------------------------------|------------------------------|
D|-----------------------------|----------|------------------------------|------------------------------|


Verse/Estrofe:


GUITAR 2:

E|-----------------------------------|----------------------------------|
B|-----------------------------------|----------------------------------|
G|--8--10--10--10-p-8----------------|------------------------8---------|
D|---------------------10--8--10--8--|--7--7--7--7--7--8--10-----10--8--|
A|-----------------------------------|----------------------------------|
D|-----------------------------------|----------------------------------|


GUITAR 2:

E|-----------------------------------|------------------------------------------------|
B|-----------------------------------|-------------------------------------11--9------|
G|--8--10--10--10-p-8----------------|--8--10--10--10--10--10--10--10--10---------10--|
D|---------------------10--8--10--8--|------------------------------------------------|
A|-----------------------------------|------------------------------------------------|
D|-----------------------------------|------------------------------------------------|


Pre-Chorus/Pre-Estribillo:



GUITAR 2:

E|-------------------|---------------------------8---------|----------------------------------------|
B|-------------------|--11--9--9--9--11--9----------11--9--|-------9--11--9---9--9--11--9-h-11--11--|
G|--8----10--8----8--|----------------------8--------------|--8-------------------------------------|
D|-------------------|-------------------------------------|----------------------------------------|
A|-------------------|-------------------------------------|----------------------------------------|
D|-------------------|-------------------------------------|----------------------------------------|


Chorus/Estribillo:

GUITAR 2:

E|---------------------------------------------|----------------------------------|
B|---------------------------------------------|------------------11--------------|
G|--------------13--12--13--12-----------------|------13--12--13------13--12------|
D|--10--11--13------------------13--10--10--11-|--13--------------------------13--|
A|---------------------------------------------|----------------------------------|
D|---------------------------------------------|----------------------------------|


GUITAR 2: 3

E|-------------------------------------|-------------|
B|----------------------11--13--14--13-|-11----------|
G|----------13--12--13-----------------|-----13--13--|
D|--13--13-----------------------------|-------------|
A|-------------------------------------|-------------|
D|-------------------------------------|-------------|

GUITAR 2:

E|---------------------------------------------|----------------------------------|
B|---------------------------------------------|------------------11------11--13--|
G|--------------13--12--13--12-----------------|------13--12--13------13----------|
D|--10--11--13------------------13--10--10--11-|--13------------------------------|
A|---------------------------------------------|----------------------------------|
D|---------------------------------------------|----------------------------------|


GUITAR 2:

E|-----------------------------|----------|------------------------------|------------------------------|
B|--13------------------13-----|--11------|------------------------------|------13--11--13--11----------|
G|------10--13--------------13-|------13--|--10--12--13--13--12------10--|----------------------13--13--|
D|------------------13---------|----------|----------------------13------|--13--------------------------|
A|-----------------------------|----------|------------------------------|------------------------------|
D|-----------------------------|----------|------------------------------|------------------------------|


Outro:

E|-------------------------------------|-------------------------------------|
B|-------------------------------------|-------------------------------------|
G|-------------------------------------|-------------------------------------|
D|--1--3--3---1--1--3--3---1--1--3--6--|--1--3--3---1--1--3--3---1--1--3--6--|
A|--1--3--3---1--1--3--3---1--1--3--6--|--1--3--3---1--1--3--3---1--1--3--6--|
D|--1--3--3---1--1--3--3---1--1--3--6--|--1--3--3---1--1--3--3---1--1--3--6--|

E|-------------------------------------|--------------------------------------|
B|-------------------------------------|--------------------------------------|
G|-------------------------------------|--------------------------------------|
D|--1--3--3---1--1--3--3---1--1--3--6--|--1--3--3---1--3--3---(1)-x--x--x--x--|
A|--1--3--3---1--1--3--3---1--1--3--6--|--1--3--3---1--3--3---(1)-x--x--x--x--|
D|--1--3--3---1--1--3--3---1--1--3--6--|--1--3--3---1--3--3---(1)-x--x--x--x--|

Tabs by JM Martins
00:00 / 00:00
Outros vídeos desta música
Repetir
Outros vídeos desta música
Compositor não encontrado.
Colaboração e revisão:
  • José neto
2.315 exibições
    • ½ Tom
    • A
    • Bb
    • B
    • C
    • Db
    • D
    • Eb
    • E
    • F
    • F#
    • G
    • Ab
  • Adicionar à lista

    0 comentários

    Ver todos os comentários

    Entre para oCifra Club PRO

    Tenha acesso a benefícios exclusivos no App e no Site

    • Chega de anúncios

    • Prioridade de compra em lançamentos

    • Mais recursos no app do Afinador

    • Atendimento Prioritário

    • Descontos nos produtos Cifra Club

    • Ajude a produzir mais conteúdo

    00:00 / 00:00

    Cifra Club Pro

    Aproveite o Cifra Club com benefícios exclusivos e sem anúncios
    Cifra Club Pro
    Aproveite o Cifra Club com benefícios exclusivos e sem anúncios
    OK