Notificações Amigos pendentes

      O Surto

      Tudo é Possível

      193.785 exibições
      Tom: G
      (intro) G  Em  C  D
      
      
      E|-----------------------------------------------------------5-6-5-3-----------|
      B|----------------------------------------------------------5---------5-7/3-3--|
      G|---------------------------------------------------------5-------------------|
      D|-0-5/9---7-9-7--5-5--7-7/9--5--5---7-9-7--5-5--7/9--5------------------------|
      A|---------------------------------5-------------------------------------------|
      E|-----------------------------------------------------------------------------|
      
      
      E|-----------------|
      B|-----------------|
      G|-7-7-7-7-7-7-7-7-|
      D|-7-7-7-7-7-7-7-7-|
      A|-5-5-5-5-5-5-5-5-|
      E|-----------------|
      
          ( abafado )
      
       G                  Em
      Gy, queria poder te levar
                           C
      Fazer o que a gente bem pensar
      Cm                      D
      Ficar onde fosse preciso
      
                   C             G
      Sei que pode ser, tudo é possível
                   Em           G
      É só você querer, ficar comigo
                      Am                Cm               G
      Eu posso te esperar, seja quanto for, pro resto da vida
      
                 Am             C               G
      Eu quis o tempo todo, enquanto estivemos perto
                Am            C
      Eu só não soube como dizer
      
                      G
      Mas ainda vou tentar
                             Em
      se a sua canção fosse minha
                        C     Cm                    D
      você estivesse sozinha, e não precisasse explicar, nada a ninguém
        Composição: Kiko ZambianchiColaboração e revisão:
        • Pedro988
        • Zé Ruela
        • guitarloko
        • Arcara
        • +2

        Comentários 1

        140 .
        140 cancelar

        conseguiu tocar?

        Maycon Oliveira de Almeida543 visualizações
        ver covers de outras músicas »
        0:00 / 0:00

        Capítulos

          1 versão de violão dificuldade exibições contribuição e correção
          1 versão de guitarra dificuldade exibições contribuição e correção
          1 versão de cavaco dificuldade exibições contribuição e correção
          1 versão de teclado dificuldade exibições contribuição e correção
          1 versão de baixo exibições contribuição e correção
          1 versão de bateria exibições contribuição e correção
          play/pausefechar subir/descer velocidade
          6ª corda E5ª corda A4ª corda D3ª corda G2ª corda B1ª corda E
            acordes
            publicidade
            fechar
            ok