Cifra Club

Don't Look Back In Anger

Oasis

Cifra: Guitarra (violão e guitarra)
tom: C
[Intro] C  F7M (Riff 1)
        C  F7M

[Tab - Riff 1]

E|------------------------------------------|
B|------------------------------------------|
G|--------0---------------------------------|
D|----2h3-----------------------------------|
A|-3----------------------------------------|
E|------------------------------------------|

E|------------------------------------------|
B|-1----1-----------------------------------|
G|-0h2--0-------------0---------------------|
D|-----------0-0h2p0------------------------|
A|------------------------------------------|
E|------------------------------------------|

[Primeira Parte]

  C             G/B          Am
Slip inside the eye of your mind
            E             F   G
Don't you know you might find
                    C  ( Am  G )
A better place to play
 C             G/B         Am  
You said that you'd never been
              E                 F   G
But all the things that you've seen
                   C  ( Am  G )
Will slowly fade away

[Pré-Refrão]

F                   Fm          C     (Riff 2)
  So I start a revolution from my bed
            F
'Cause you said the brains
   Fm             C   (Riff 3)
I had went to my head
  F                Fm               C   (Riff 4)
Step outside, the summertime's in bloom
  G   
Stand up beside the fireplace
 E/G#
Take that look from off your face
 Am             G          F           G (Riff 5)
You ain't ever gonna burn my heart out

[Tab - Pré-Refrão]

Riff 2
   F           Fm          C
E|------------------------------------------|
B|-----1---1-1-----1---1-1------------------|
G|-----2---2-2-----1---1-1------------------|
D|-----3---3-3-----3---3-3------------------|
A|-------------------------3----------------|
E|-1-----------1----------------------------|

E|------------------------------------------|
B|------------------------------------------|
G|-5----5--x--------------------------------|
D|-5h7--5--x-------5------------------------|
A|-----------5-5/7----5/7\5--3--------------|
E|------------------------------------------|

Riff 3
   F           Fm          C
E|------------------------------------------|
B|-----1---1-1-----1---1-1-----5------------|
G|-----2---2-2-----1---1-1-----5------------|
D|-----3---3-3-----3---3-3-----5------------|
A|-------------------------3----------------|
E|-1-----------1----------------------------|

E|------------------------------------------|
B|-5----------------------------------------|
G|-5--/9------------------------------------|
D|-5----------------------------------------|
A|--------5h7p5-----------------------------|
E|------------------------------------------|

Riff 4
   F           Fm          C
E|------------------------------------------|
B|-----1---1-1-----1---1-1-----5------------|
G|-----2---2-2-----1---1-1-----5------------|
D|-----3---3-3-----3---3-3-----5------------|
A|-------------------------3----------------|
E|-1-----------1----------------------------|

E|-------8\---------------------------------|
B|-------8\---------------------------------|
G|-7-7/9------------------------------------|
D|------------------------------------------|
A|------------------------------------------|
E|------------------------------------------|

Riff 5
   G
E|------------------------------------------|
B|-3-----3-----3-----3----------------------|
G|-0-----0-----0-----0----------------------|
D|-0-----0-----0-----0----------------------|
A|------------------------------------------|
E|-3--3--3--3--3--3--3--3-------------------|

   E/G#
E|------------------------------------------|
B|-5-----5-----5-----5----------------------|
G|-4-----4-----4-----4----------------------|
D|-2-----2-----2-----2----------------------|
A|------------------------------------------|
E|-4--4--4--4--4--4--4--4-------------------|

   Am           G
E|-------0--0-0-------3--3-3----------------|
B|-------1--1-1-------3--3-3----------------|
G|-------2--2-2-------0--0-0----------------|
D|-------2--2-2-------0--0-0----------------|
A|-0--0-------------------------------------|
E|--------------3--3------------------------|

   F                       G
E|------------------------------------------|
B|-------------------------3--3-------------|
G|-------------------------0--0-------------|
D|-3-----3-----3-----3--3--0--0-------------|
A|-3-----3-----3-----3--3-------------------|
E|-1--0--1--0--1--0--1--1--3--3-------------|

E|------------------------------------------|
B|------5---------8-------------------------|
G|-5----5--7b9-------b9r7-5-7--5------------|
D|-5h7--------------------------------------|
A|------------------------------------------|
E|------------------------------------------|

[Refrão]

     C  G/B       Am
And so Sally can wait
      E             F
She knows it's too late
          G          C  ( Am  G )
As we're walking on by
     C     G/B    Am  E
Her soul slides away
                F            G
But don't look back in anger

I heard you say

( C  G/B  Am  E )
( F  G  C  Am  G )

[Tab - Interlúdio]

E|------------------------------------------|
B|-----------------------------8------------|
G|-----5-7-7b9r7-5---5~----7/9-----9\7-5~---|
D|-5h7-------------7------------------------|
A|------------------------------------------|
E|------------------------------------------|

E|------------------------------------------|
B|------------------------------------------|
G|-----5h7-----5h7-5~-----------------------|
D|-5h7-----5h7------------------------------|
A|------------------------------------------|
E|------------------------------------------|

[Segunda Parte]

 C               G/B            Am
Take me to the place where you go
       E       F   G  (Riff 6)
Where nobody knows
                  C  ( Am  G )
If it's night or day

  C                     G/B
Please, don't put your life
        Am
In the hands
      E           F   G
Of a rock'n'roll band
                      C  ( Am  G )
Who'll throw it all away

[Tab - Riff 6]

E|------------------------------------------|
B|-1----1-----------------------------------|
G|-0h2--0-----------------5---5~------------|
D|----------------5---5h7---7---------------|
A|----------3-5/7---------------------------|
E|------------------------------------------|

E|------------------------------------------|
B|------------------------------------------|
G|-7b9--7--5--7--5~-------------------------|
D|------------------------------------------|
A|------------------------------------------|
E|------------------------------------------|

E|------------------------------------------|
B|------------------------------------------|
G|---------5h7p5-7b9--7--5--7--5~-----------|
D|-----5h7----------------------------------|
A|-5h7--------------------------------------|
E|------------------------------------------|

E|------------------------------------------|
B|------------------------------------------|
G|-----5----5-------------------------------|
D|-5h7----7---------------------------------|
A|------------------------------------------|
E|------------------------------------------|

[Pré-Refrão]

F                        Fm
  I'm gonna start a revolution
      C     (Riff 7)
From my bed
            F
'Cause you said the brains
   Fm          C      (Riff 8)
I had went to my head
  F               Fm          C        (Riff 9)
Step outside the summertime's in bloom
 G   
Stand up beside the fireplace
 E/G#
Take that look from off your face
        Am             G
'Cause you ain't ever gonna
      F           G (Riff 10)
Burn my heart out

[Tab - Pré-Refrão]

Riff 7
   F           Fm          C
E|------------------------------------------|
B|-----1---1-1-----1---1-1-----5------------|
G|-----2---2-2-----1---1-1-----5------------|
D|-----3---3-3-----3---3-3-----5------------|
A|-------------------------3----------------|
E|-1-----------1----------------------------|

E|------------------------------------------|
B|------8--8\-------------------------------|
G|-8/9--9--9\-------------------------------|
D|------------------------------------------|
A|------------------------------------------|
E|------------------------------------------|

Riff 8
   F           Fm          C
E|------------------------------------------|
B|-----1---1-1-----1---1-1-----5------------|
G|-----2---2-2-----1---1-1-----5------------|
D|-----3---3-3-----3---3-3-----5------------|
A|-------------------------3----------------|
E|-1-----------1----------------------------|

E|------------------------------------------|
B|-5----------------------------------------|
G|-7b9----b9r7-5----5/7/12------------------|
D|---------------7--------------------------|
A|------------------------------------------|
E|------------------------------------------|

Riff 9
E|-----8\-----------------------------------|
B|-----8\-----------------------------------|
G|-8/9--------------------------------------|
D|------------------------------------------|
A|------------------------------------------|
E|------------------------------------------|

Riff 10
   G
E|------------------------------------------|
B|-3-----3-----3-----3----------------------|
G|-0-----0-----0-----0----------------------|
D|-0-----0-----0-----0----------------------|
A|------------------------------------------|
E|-3--3--3--3--3--3--3--3-------------------|

   E/G#
E|------------------------------------------|
B|-5-----5-----5-----5----------------------|
G|-4-----4-----4-----4----------------------|
D|-2-----2-----2-----2----------------------|
A|------------------------------------------|
E|-4--4--4--4--4--4--4--4-------------------|

   Am           G
E|-------0--0-0-------3--3-3----------------|
B|-------1--1-1-------3--3-3----------------|
G|-------2--2-2-------0--0-0----------------|
D|-------2--2-2-------0--0-0----------------|
A|-0--0-------------------------------------|
E|--------------3--3------------------------|

   F                       G
E|------------------------------------------|
B|-------------------------3--3-------------|
G|-------------------------0--0-------------|
D|-3-----3-----3-----3--3--0--0-------------|
A|-3-----3-----3-----3--3-------------------|
E|-1--0--1--0--1--0--1--1--3--3-------------|

E|------------------------------------------|
B|------------------------------------------|
G|-----5--7-7-7b9r7-5---5-------------------|
D|-5h7----------------7---------------------|
A|------------------------------------------|
E|------------------------------------------|

E|------------------------------------------|
B|---------8--------------------------------|
G|-7-7b9-----b9r7-5-7-5-7-7-5---------------|
D|------------------------------------------|
A|------------------------------------------|
E|------------------------------------------|

[Refrão]

     C  G/B       Am
And so Sally can wait
      E             F
She knows it's too late
          G          C  ( Am  G )
As we're walking on by
     C     G/B    Am  E
Her soul slides away
                F            G
But don't look back in anger
             C  ( Am  G )
I heard you say

[Solo] F  Fm  C  F  Fm  C  F  Fm  C
       G  E/G#  Am  G  F  G 

[Tab - Solo]

Parte 1 De 6
E|-----------------------------------------------------|
B|-----------------------------------------------------|
G|-7b9r7--7b9r7--7b9r7--5------------------------------|
D|-------------------------5---------------------------|
A|-----------------------------------------------------|
E|-----------------------------------------------------|

E|-----------------------------------------------------|
B|-----------------8-----------------------------------|
G|-----5-----5-7b9---b9r7p5---5-5-7-5------------------|
D|-5h7---5h7----------------7--------------------------|
A|-----------------------------------------------------|
E|-----------------------------------------------------|

Parte 2 De 6
E|-----------------------------------------------------|
B|-----------------------------------------------------|
G|-7b9r7--7b9r7--7b9r--5-------5----5------------------|
D|------------------------5----5h7--5--------5---------|
A|---------------------------------------5/7---7\5-3---|
E|-----------------------------------------------------|

Parte 3 De 6
E|-----------------------------------------------------|
B|-----------------------------------------------------|
G|---------------5--5-7b9--b9r7-5---5------------------|
D|-----------5h7------------------7--------------------|
A|-----3-5/7-------------------------------------------|
E|-3h5-------------------------------------------------|

E|--------------8---8-8h10-8---------------------------|
B|------8--8/10----------------------------------------|
G|-7/9-------------------------------------------------|
D|-----------------------------------------------------|
A|-----------------------------------------------------|
E|-----------------------------------------------------|

Parte 4 De 6
E|------8------8------8------8------8------------------|
B|-8h10---8h10---8h10---8h10---8h10--------------------|
G|-----------------------------------------------------|
D|-----------------------------------------------------|
A|-----------------------------------------------------|
E|-----------------------------------------------------|

E|-8h10-8h10p8----8h10p8----8h10p8----8h10-------------|
B|-8-----------10--------10--------10------------------|
G|-----------------------------------------------------|
D|-----------------------------------------------------|
A|-----------------------------------------------------|
E|-----------------------------------------------------|

Parte 5 De 6
E|-12-----12-----12-----12-----12----------------------|
B|-15b17--15b17--15b17--15b17--15b17-------------------|
G|-----------------------------------------------------|
D|-----------------------------------------------------|
A|-----------------------------------------------------|
E|-----------------------------------------------------|

E|-12-----12-------------------------------------------|
B|-15b17--15b17r15p13----13----------------------------|
G|--------------------14-------------------------------|
D|-----------------------------------------------------|
A|-----------------------------------------------------|
E|-----------------------------------------------------|

Parte 6 De 6
E|--------17-------------------------------------------|
B|-15b17-----b17r15p13-15-13-13h15---------------------|
G|-----------------------------------------------------|
D|-----------------------------------------------------|
A|-----------------------------------------------------|
E|-----------------------------------------------------|

E|-12-----12-12-----12-12-----12-12-----12-12------12--|
B|-15b17-----15b17-----15b17-----15b17-----15b17--b17--|
G|-----------------------------------------------------|
D|-----------------------------------------------------|
A|-----------------------------------------------------|
E|-----------------------------------------------------|

[Refrão Final]

     C  G/B       Am
And so Sally can wait
      E             F
She knows it's too late
          G          C  ( Am  G )
As we're walking on by
     C     G/B    Am  E
Her soul slides away
                F  (Riff 11)  G
But don't look back in anger
             C  ( Am  G )
I heard you say

[Tab - Riff 11]

E|------------------------------------------|
B|8-----8-----------------------------------|
G|7b9--b9r7p5---5--5h7-7b9--b9r7p5---5-5h7p5|
D|------------7--------------------5--------|
A|------------------------------------------|
E|------------------------------------------|

     C  G/B       Am
And so Sally can wait
      E             F
She knows it's too late
          G          C  Am  G
As we're walking on by
     C     G/B    Am
Her soul slides away
                F
But don't look back in anger
            Fm
Don't look back in anger
             C  G/B  Am  E  F  Fm
I heard you say
                C
At least not today

[Tab - Riff 12]

E|------------------------------------------|
B|------------------------------------------|
G|---------5-7-7b9r7p5---5---7p5-7b9--b9r7-5|
D|-----5h7-------------7--------------------|
A|-5h7--------------------------------------|
E|------------------------------------------|

E|------------------------------------------|
B|------------------------------------------|
G|-5h7-5------------------------------------|
D|---------5h7--5-----0-----5---------------|
A|------------------0---5h7----7\5--3-------|
E|------------------------------------------|
00:00 / 00:00
Outros vídeos desta música
Repetir
Outros vídeos desta música
Composição de Noel Gallagher
Colaboração e revisão:
  • Vinícius Dias
  • Artur Davis
147.684 exibições
  • Simplificar cifra
    • ½ Tom
    • A
    • Bb
    • B
    • C
    • Db
    • D
    • Eb
    • E
    • F
    • F#
    • G
    • Ab
  • Adicionar à lista

    0 comentários

    Ver todos os comentários

    Entre para oCifra Club PRO

    Tenha acesso a benefícios exclusivos no App e no Site

    • Chega de anúncios

    • Prioridade de compra em lançamentos

    • Mais recursos no app do Afinador

    • Atendimento Prioritário

    • Descontos nos produtos Cifra Club

    • Ajude a produzir mais conteúdo

    00:00 / 00:00
    Capítulos
    • Apresentação
    • Configuração do Timbre
    • Dicas Introdução
    • Ensinando Introdução
    • Dicas Primeira Parte
    • Ensinando Primeira Parte
    • Ensinando Padrão de Ritmo da Música
    • Ensinando Padrão de Arpejo
    • Ensinando Pré-Refrão 1
    • Ensinando Interlúdio
    • Ensinando Segunda Parte
    • Ensinando Pré-Refrão 2
    • Ensinando Solo da Música
    • Ensinando Refrão Final
    • Encerramento

    Cifra Club Pro

    Aproveite o Cifra Club com benefícios exclusivos e sem anúncios
    Cifra Club Pro
    Aproveite o Cifra Club com benefícios exclusivos e sem anúncios
    OK