Cifra Club

Aprenda

Don't Look Back In Anger

Oasis

Tab de baixo: Versão 3
No Bass for Intro

Verse 1

G|-------------------------------------------------------------------------|
D|-------------------------------------------------------------------------|
A|-3-3-3-3-----------------------------------------------3-3-3-3-----------|
E|----------3-3-3-3--5-5-5-5--0-0-0-0--1-1-1-1--3-3-3-3-----------5-5--3-3-|

Repeat this once more to complete the first verse.

Pre Chorus

G|------------------------------------------|
D|------------------------------------------|
A|------------------3-3-3-3-3-3-3-3---------|  X 3
E|-1-1-1-1-1-1-1-1--------------------------|

G|-------------------------------------------------------------------------|
D|-------------------------------------------------------------------------|
A|-------------------------------------------------------------------------|
E|-3-3-3-3-3-3-3-3--4-4-4-4-4-4-4-4--5-5-5-5--3-3-3-3----------------------|

G|-------------------------------------------------------------------------|
D|-------------------------------------------------------------------------|
A|-------------------------------------------------------------------------|
E|-1-1-1-1-1-1-1-1--3-3-3-3-3-3-3-3-3-3-3-3-3-3-3-3------------------------|

Chorus

G|-------------------------------------------------------------------------|
D|-------------------------------------------------------------------------|
A|-3-3-3-3-----------------------------------------------3-3-3-3-----------|
E|----------3-3-3-3--5-5-5-5--0-0-0-0--1-1-1-1--3-3-3-3-----------5-5--3-3-|

Repeat this once more to complete the chorus.

Play this till verse starts:

G|--------------------------------------------------------------------------
D|--------------------------------------------------------------------------
A|-------------------------------------3-3-3-3------------------------------
E|-5-5-5-5--0-0-0-0--1-1-1-1--3-3-3-3-----------5-5--3-3--------------------

Then play the verse again twice, then pre chorus. Play the pre chorus whilst
the guitar solo is being played and stop at the end for the drum solo.

Chorus

G|-------------------------------------------------------------------------|
D|-------------------------------------------------------------------------|
A|-3-3-3-3-----------------------------------------------3-3-3-3-----------|
E|----------3-3-3-3--5-5-5-5--0-0-0-0--1-1-1-1--3-3-3-3-----------5-5--3-3-|

Play this 3 times through.

After that play this:

G|-------------------------------------------------------------------------|
D|-------------------------------------------------------------------------|
A|-3-3-3-3-----------------------------------------------------------------|
E|----------3-3-3-3--5------1------3---------------------------------------|

Outro

G|-------------------------------------------------------------------------|
D|-------------------------------------------------------------------------|
A|-3-3-3-3-----------------------------------------------------------------|
E|----------3-3-3-3--5-5-5-5--0-0-0-0--1-1-1-1--3-3-3-3--------------------|

Finish with:

A|--3--
Composição de Noel Gallagher
1.189 exibições

0 comentários

Ver todos os comentários

Conseguiu tocar?

1 Tocaram 0 Ainda não

Grave um vídeo tocando Don't Look Back In Anger e nos envie!

00:00 / 00:00
Outros vídeos desta música
Repetir Qualidade Automático
Outros vídeos desta música
00:00 / 00:00
Automático

Cifra Club Pro

Aproveite o Cifra Club com benefícios exclusivos e sem anúncios
Cifra Club Pro
Aproveite o Cifra Club com benefícios exclusivos e sem anúncios
OK