Cifra Club

Fica do Meu Lado

Onze:20

Tab de baixo: Principal
Selo Cifra Club: esta cifra foi revisada para atender aos critérios oficiais da nossa Equipe de Qualidade.
Intro (0:22)
G|------------------------|
D|------------------------|
A|----12/1----------------|
E|------------------------|
B|------------------------|

G|--------------------------------|
D|-----1---4-------------1---4----|
A|-1/2-------------1-1/2----------|
E|-----------2-4------------------| 
B|--------------------------------|

Verso 1

G|--------------------------------|
D|-----1---4-------------1---4----|
A|-1/2-------------1-1/2----------|
E|-----------2-4------------------|
B|--------------------------------|

"Que meu plano ja deu certo..."
G|--------------6------------------|
D|------------6---6----------------|
A|-----1-2/4-------6-6/8-----------|
E|-2-4-----------------------------|
B|---------------------------------|

Refrão

"E Deus é que me livre..."
G|--------------------------------|
D|-----1---4-------------1---4----|
A|-1/2-------------1-1/2----------|
E|-----------2-4------------------|
B|--------------------------------|   

"eu quero estar contigo..."
G|--------------6------------------|
D|------------6---6----------------|
A|-----1-2/4-------6-6/8-----------|
E|-2-4-----------------------------|
B|---------------------------------|

Repita o verso e o refrão até a ponte.

G|---------------------------------------------|
D|----------4-3--------------------------------|
A|--0-4-0-4-----6-4-3-6------6-6---------------|
E|----------------------4~--4----6-6-4-4-------|
B|-----------------------------------------4~--|

G|---------------------------6-|
D|----------4-3-----------6~---|
A|--0-4-0-4-----6-4-3-6--------|
E|-----------------------------|
B|-----------------------------|

G|---------------------------------|
D|----------4-3-----------6-6/8-4~-|
A|--0-4-0-4-----6-4-3-6------------|
E|---------------------------------|
B|---------------------------------|

Repetir Refrão e verso até o final da música.
Outros vídeos desta música
    3.120 exibições

    Afinação da cifra

    Afinador online

    0 comentários

    Ver todos os comentários

    Entre para o Cifra Club PRO

    Tenha acesso a benefícios exclusivos no App e no Site

    • Chega de anúncios

    • Badges exclusivas

    • Mais recursos no app do Afinador

    • Atendimento Prioritário

    • Aumente seu limite de lista

    • Ajude a produzir mais conteúdo

    Cifra Club Pro

    Aproveite o Cifra Club com benefícios exclusivos e sem anúncios
    Cifra Club Pro
    Aproveite o Cifra Club com benefícios exclusivos e sem anúncios
    OK