Cifra Club

Carmina Burana - Chramer Gip Die Varwe Mir

Carl Orff

Cifra: Principal (violão e guitarra)
Selo Cifra Club: esta cifra foi revisada para atender aos critérios oficiais da nossa Equipe de Qualidade.
tom: G
[Verse]
   G      +     +              +     +          +     +                      +     +           +     +
E|--------------------|--------------------|--------------------|---------------------|--------------------|
B|--------------------|-3---3-----3-----3--|-3-p1-p0------------|---------------0-h1--|-3---------3--------|
G|--------0-----0-----|--------0-----0-----|----------2--0------|-0---0---0-h2--------|--------0-----0-----|
D|-----0-----------0--|-----0-----------0--|-------0---------0--|-----0---------0-----|-----0-----------0--|
A|-----------2--------|-----------2--------|-------------2------|---------------------|-----------2--------|
E|-3------------------|-3------------------|-3------------------|-3-------3-----------|-3------------------|
                        Chramer,  gip die    varwe       mir,     die min wengel        roete, 
                        Minnet,   tugent-    liche       man,     minnec- liche         frouwen! 
                        Wol dir,  Werlt,     daz   du    bist     also    freuden-      riche! 

          +     +          +     +           D7 +     +     +          +     +     +     +    G q=100 hold
E|--------------------|--------------------|----0-----------------|----0--------------------|----------------|
B|-3---3-----3-----3--|-3-p1-p0---------3--|-3-----3-p1--0-----3--|-------3-p1--0-h1-p0-----|----------------|
G|--------0-----0-----|----------2--0------|----------------2-----|----------------------2--|-0-------0------|
D|-----0-----------0--|-------0---------0--|-------0-----------0--|-------0-----------0-----|-----0-------0--|
A|-----------2--------|-------------2------|-------------0--------|-------------0-----------|---------2------|
E|-3------------------|-3------------------|-2--------------------|-2-----------------------|-3--------------|
   damit     ich die    jungen      man an         ir    dank der   minnen-     liebe         noete. 
   Minne     tuot iu    hoch  ge-   muot und lat   iuch  in         hohen       eren          schouwen. 
   Ich will  dir sin    undertan        durch      din   liebe      immer ´     sicher-       liche.


[Bridge-Part1] q=120
   Am       +       +         Bm       +       +         Am       +       +         Bm       +       +
E|-0a-----------0-----------|-2a-----------2-----------|-0a-----------0-----------|-2a-----------2-----------|
B|-1a-----------1-----------|-3a-----------3-----------|-1a-----------1-----------|-3a-----------3-----------|
G|-2a-------2-------2-------|-4a-------4-------4-------|-2a-------2-------2-------|-4a-------4-------4-------|
D|------2---------------2---|------4---------------4---|------2---------------2---|------4---------------4---|
A|-0a-----------------------|-2a-----------------------|-0a-----------------------|-2a-----------------------|
E|--------------0-----------|--------------2-----------|--------------0-----------|--------------2-----------|

[Bridge-Part2] q=120
   Am       +       +         Bm       +       +         Am       +       +         D7       +       +
E|-0a-----------0-----------|-2a-----------2-----------|-0a-----------0-----------|-2a-----------2-----------|
B|-1a-----------1-----------|-3a-----------3-----------|-1a-----------1-----------|-1a-----------1-----------|
G|-2a-------2-------2-------|-4a-------4-------4-------|-2a-------2-------2-------|-2a-------2-------2-------|
D|------2---------------2---|------4---------------4---|------2---------------2---|------0---------------0---|
A|-0a-----------------------|-2a-----------------------|-0a-----------------------|-0a-----------------------|
E|--------------0-----------|--------------2-----------|--------------0-----------|--------------2-----------|
   
   
[Chorus]  resume q=140                                            /---3/4-time----\
   G      +     +               +     +        D7     +            G  +     +               +     +
E|---------------------|---------------------|-------------------|-----------------|---------------------|
B|-3---0-h1--3---------|-3---0-h1--3---------|-3---1-p0--1-------|-0-----0-h1--3---|-3---0-h1--3---------|
G|--------------0------|--------------0------|---------------2---|----2------------|--------------0------|
D|-----0-----------0---|-----0-----------0---|-----0---------0---|-------0---------|-----0-----------0---|
A|-----------2---------|-----------2---------|-----------2-------|-------------2---|-----------2---------|
E|-3-------------------|-3-------------------|-2-----------------|-3---------------|-3-------------------|
   Seht mich an,         jungen    man!        lat mich iu   ge-   vallen!           Seht mich an,

          +     +       D7     +           G  +     +     +     +       +     +  D7 +     +    G q=100 hold
E|--------------------|------------------|----3-p2-p0-----3-p2-p0--|----3-p2-p0--------------|---------------|
B|-3---0-h1--3--------|-3---1-p0--1------|-3-----------3-----------|-3-----------3-p1-p0-----|---------------|
G|--------------0-----|---------------2--|-------------------------|----------------------2--|-0-------------|
D|-----0-----------0--|-----0---------0--|-------0-----------0-----|-------0-----------0-----|-----0------0--|
A|-----------2--------|-----------2------|-------------2-----------|-------------0-----------|--------2------|
E|-3------------------|-2----------------|-3-----------------------|-3-----------------------|-3-------------|
   jungen    man!       lat mich  iu  ge-  va-         va-           va-         al-           len!

[Bridge-Part2]        ... as above ...

************************************                                 

| a   Arpeggio (harp-like: pick all strings upward in fast sequence) 
| h   Hammer-on
| p   Pull-off
| \   Slide down
                                          
Outros vídeos desta música
    3 exibições
      • ½ Tom
      • A
      • Bb
      • B
      • C
      • Db
      • D
      • Eb
      • E
      • F
      • F#
      • G
      • Ab
    • Adicionar à lista

    Afinação da cifra

    Afinador online

      0 comentários

      Ver todos os comentários

      Conseguiu tocar?

      0Tocaram0Ainda não

      Grave um vídeo tocando Carmina Burana - Chramer Gip Die Varwe Mir e nos envie!

      Toque também

      1. Imagem do artista Richard WagnerMarcha Nupcial Richard Wagner
      2. Imagem do artista Georges BizetCarmen Georges Bizet
      3. Imagem do artista Giuseppe VerdiCaro Mio Ben Giuseppe Verdi
      4. Imagem do artista Franz LisztHungarian Rhapsody 2 Franz Liszt

      Entre para o Cifra Club PRO

      Tenha acesso a benefícios exclusivos no App e no Site

      • Chega de anúncios

      • Mais recursos no app do Afinador

      • Atendimento Prioritário

      • Aumente seu limite de lista

      • Ajude a produzir mais conteúdo

      Cifra Club Pro

      Aproveite o Cifra Club com benefícios exclusivos e sem anúncios
      Cifra Club Pro
      Aproveite o Cifra Club com benefícios exclusivos e sem anúncios
      OK