Cifra Club

Carmina Burana - Floret Silva Nobilis

Carl Orff

Cifra: Principal (violão e guitarra)
Selo Cifra Club: esta cifra foi revisada para atender aos critérios oficiais da nossa Equipe de Qualidade.
tom: G
   G                                             D7               G
E|----------------|----------------|-----------|----------------|-------------------|
B|-3--------p0----|-3--------p0----|-3---p0----|-3--------p1----|-0----0------------|
G|------0---------|------0---------|------0----|------2---------|----------2--p0----|
D|-----------0----|-----------0----|-----------|-----------0----|--------------0----|
A|----------------|-2--------------|-----------|-0--------------|-------------------|
E|-3--------------|----------------|-3---------|----------------|-3-----------------|
   Flo-      ret,   flo-      ret,   floret      sil-      va     no-  bi-     lis,
   Flo-      ret,   flo-      ret,   floret      sil-      va     un-  di-     que,

   1   +   2   +   3      1    2      1    2    3      1    2   +   3
   D                      G           D7               G
E|-----0----------------|-----------|----------------|-------------------|
B|-3-------3--p1--p0----|-3---p0----|-3--------p1----|-0----0------------|
G|----------------------|------0----|------2---------|----------2--p0----|
D|-----------------0----|-----------|-----------0----|--------------0----|
A|-0--------------------|-----------|-0--------------|-------------------|
E|----------------------|-3---------|----------------|-3-----------------|
                          floret      sil-      va     no-  bi-     lis.
                          floret      sil-      va     un-  di-     que.

  /----------repeat----------\ /-----------------repeat------------------\
   1    2    3      1    2      1    2    3    4      1    2    3    4
E|-----------0----|-----------|-3--------\2---------|-0-------------------|
B|-3---p0---------|-3---p0----|---------------------|-----------3---------|
G|------0---------|------0----|------0---------0----|------0---------0----|
D|-----------0----|-----------|-----------0---------|-----------0---------|
A|----------------|-2---------|---------------------|-2-------------------|
E|-3--------------|-----------|-3-------------------|---------------------|
   Flo-      ri-    bus         e-        e-          e-        et 
   Nach mim  ge-    sellen      i-        i-          i-        st 

  /----------repeat----------\ 
   1    2    3      1    2      1    2    3      1    2    3      1    2    3
   D                G           D                G                     hold a sec
E|----------------|-----------|----------------|----------------|----------------|
B|------3----3----|-0---------|------3----3----|-0----3----3----|-0--------------|
G|-2--------------|------0----|-2--------------|-0--------------|----------------|
D|-----------0----|-----------|-----------0----|-----------0----|------0---------|
A|----------------|-----------|----------------|----------------|----------------|
E|-2--------------|-3---------|-2--------------|-3--------------|-3--------------|
   et   foli-       is          et   foli-       is
   ist       mir    weh,        ist       mir    weh.

  /---------------------------------------------repeat------------------------------------------------\ 
   1   2   3   4     1   2   3   4     1   2   3   4     1   2   3     1   2     1   2   3     1   2
   G q=120                                               D7 q=140      G         D7            G
E|-----------------|-----------------|-----------------|-----0---0---|---------|-----0---0---|---------|
B|-0-------3-------|-0-------3-------|-0-------3-------|-1-----------|-3--p0---|-1-----------|-3--p0---|
G|-----0-------0---|-----0-------0---|-----0-------0---|-------------|-----0---|-------------|-----0---|
D|---------0-------|---------0-------|---------0-------|---------0---|---------|---------0---|---------|
A|-----------------|-2---------------|-----------------|-------------|---------|-------------|---------|
E|-3---------------|-----------------|-3---------------|-2-----------|-3-------|-2-----------|-3-------|
|: U-      bi        est     an-       ti-     quus      meus    a-    micus?    meus    a-    micus? :|
   Gruo-   net       der               walt              allent-       halben,   allent-       halben,
   Wo      ist       min     ge-       sel-    le        al-     se    lange?    al-     se    lange?

  /----------------------repeat----------------------\ /-----------------repeat-----------------------\
   1   +   2    3   +   4      1   +   2    3    4      1    2    3    4      1    t    t    3    4
E|---------------------------|------------------------|-3---p2----3---p2----|-0----2---p0---------3----|
B|-3---3---3----3---3---3----|-3---3---3--------------|---------------------|----------------3---------|
G|-0---0---0----0---0---0----|-0---0---0--------------|---------------------|--------------------------|
D|---------------------------|-0-----------------0----|-----------0---------|----------------0---------|
A|--------------2------------|--------------2---------|---------------------|--------------------------|
E|-3-------------------------|------------------------|-3-------------------|-3------------------------|
   hinc         hinc           hinc equitavit,          e-        e-          e-             ia,                
   Der          der            der ist geritten hinnen  o-        o-          o-             wi, 
                                                          
   1    2    3    4      1    2    3    4      1  2  3    4      1    2    3  4                                  
   G                                           Am half-bar                    
E|-3---p2----3---p2----|-0---h2----3---------|-5a--------------|-----------------|
B|---------------------|---------------------|-5a--------------|-----------------|
G|---------------------|----------------0----|-5a---------5----|------5----------|
D|-----------0---------|-----------0---------|-------5---------|-----------5-----|
A|---------------------|---------------------|-0a--------------|-0---------------|
E|-3-------------------|-3-------------------|-----------------|-----------------|
   e-   i-   a,   quis   me   a-   ma-         bit?
   o-   o-   wi,  wer    soll mich min-        nen?

  /---------------repeat 2x--------------\ /----------repeat-----------\
   1  +  2   3  +  4     1  +  2  3   4     1 2  3   4     1   2   3 4   
   G                                        G q=100
E|---------------------|------------------|-7a-----------|--------------|
B|-3--3--3---3--3--3---|-3--3--3----------|-0a-----------|--------------|
G|-0--0--0---0--0--0---|-0--0--0----------|-0a-------0---|-----0--------|
D|---------------------|-0------------0---|------0-------|---------0----|
A|-----------2---------|----------2-------|--------------|-2------------|
E|-3-------------------|------------------|-7a-----------|--------------|
                                            Aaah!

************************************                                 

| a   Arpeggio (harp-like: pick all strings upward in fast sequence) 
| h   Hammer-on
| p   Pull-off
| \   Slide down
                                          
Outros vídeos desta música
    3 exibições
      • ½ Tom
      • A
      • Bb
      • B
      • C
      • Db
      • D
      • Eb
      • E
      • F
      • F#
      • G
      • Ab
    • Adicionar à lista

    Afinação da cifra

    Afinador online

      0 comentários

      Ver todos os comentários

      Conseguiu tocar?

      0Tocaram0Ainda não

      Grave um vídeo tocando Carmina Burana - Floret Silva Nobilis e nos envie!

      Toque também

      1. Imagem do artista Richard WagnerMarcha Nupcial Richard Wagner
      2. Imagem do artista Georges BizetCarmen Georges Bizet
      3. Imagem do artista Giuseppe VerdiCaro Mio Ben Giuseppe Verdi
      4. Imagem do artista Franz LisztHungarian Rhapsody 2 Franz Liszt

      Entre para o Cifra Club PRO

      Tenha acesso a benefícios exclusivos no App e no Site

      • Chega de anúncios

      • Mais recursos no app do Afinador

      • Atendimento Prioritário

      • Aumente seu limite de lista

      • Ajude a produzir mais conteúdo

      Cifra Club Pro

      Aproveite o Cifra Club com benefícios exclusivos e sem anúncios
      Cifra Club Pro
      Aproveite o Cifra Club com benefícios exclusivos e sem anúncios
      OK