Cifra Club

Carmina Burana - Ecce Gratum

Carl Orff

Cifra: Principal (violão e guitarra)
Selo Cifra Club: esta cifra foi revisada para atender aos critérios oficiais da nossa Equipe de Qualidade.
tom: G
   G                       C +        G
E|-3-------------------|------------------------|
B|(0)--------3---------|-3--/5--------3---------|
G|------0---(0)---0----|---------0----0---------|
D|-----------0---------|-------------------0----|
A|---------------------|-2--/3------------------|
E|-3-------------------|--------------3---------|
   Ec-       ce          gra-         tum.
   Iam       li-         ques-        cit. 
   Glo-      ri-         an-          tur.

   G         C           G         C           G         C           G
E|-3---------0---------|-3---------0---------|-3---------0---------|---------------------|
B|(0)---3---(1)---3----| (0)---3---(1)---3----|(0)---3---(1)---3----|-0---h1----3---------|
G|-----(0)-------(0)---|-----(0)-------(0)---|-----(0)-------(0)---| (0)--(0)--(0)--------|
D|------0---------2----|------0---------2----|------0---------2----|------0---------0----|
A|-----------3---------|-----------3---------|-----------3---------|-----------2---------|
E|-3-------------------|-3-------------------|-3-------------------|-3-------------------|
   Ecce      gratum      et   optatum          Ver reducit           gaudia,
   Iam liquescit         et   decrescit        grando,   nix  et     cetera.
   Gloriantur            et   letantur         in melle dul-         cedinis,

   G  +     +  C  +     +    G  +     +  C  +     +    G  +     +  C  +     +    G  +     +     +
E|-3-----------0-----------|-3-----------0-----------|-3-----------0-----------|-----------------------|
B|(0)----3----(1)----3-----| (0)----3----(1)----3-----|(0)----3----(1)----3-----|-0----h1-----3---------|
G|----0-----0-----0-----0--|----0-----0-----0-----0--|----0-----0-----0-----0--|----0-----0-----0------|
D|-------0-----------2-----|-------0-----------2-----|-------0-----------2-----|-------0-----------0---|
A|-------------3-----------|-------------3-----------|-------------3-----------|-------------2---------|
E|-3-----------------------|-3-----------------------|-3-----------------------|-3---------------------|
   Ecce      gratum          et    optatum             Ver   reducit             gaudia,
   Iam   liquescit           et    decrescit           grando,      nix  et      cetera.
   Gloriantur            et   letantur         in melle dul-         cedinis,

   G  +     +     +     +       +     +     +     +       +     +     +     +    D  +     +  G 
E|-------------------------|----0--------------------|-------------------------|---------------------|
B|-------------0-----0-h1--|-3-----3-p1--0-----0-h1--|-0-h1--3-p1--0-----------|---------------------|
G|-0-----0-h2-----2--------|----------------2--------|----------------2-p0-----|-0-----------0-------|
D|----4--0-----------0-----|-------0-----------0-----|-------0--------------4--|----4--2-h4------0---|
A|-------------------------|-------------------------|-------------------------|-------0-------------|
E|-3-----------3-----------|-3-----------3-----------|-3-----------3-----------|-2-----------3-------|
   purpuratum                floret      pratum,       Sol   serenat             omnia.
   bruma       fugit         et    iam   sugit         Ver   Estatis             ubera.
   qui   conantur,           ut    utantur             premio            Cu-     pidinis:

   D  +     +  G   s       D  +     +  G  +     +    D  +     +  G  +        D  +     +  G   s
E|-----------------------|-------------------------|----0------------------|-----------------------|
B|-3--3--3--3--3--p1p0---|-3--3--3-p0--3--3--3-p0--|-3-----3-p1--0-h1--3---|-3--3--3--3--3--p1p0---|
G|-----------------------|-------------------------|-----------------------|-2--2--2--2--0---------|
D|-------0-----------0---|-------0-----------0-----|-------0-----------0---|-------0-----------0---|
A|-0---------------------|-------------------------|-0---------------------|-0---------------------|
E|-------------3---------|-2-----------3-----------|-------------3---------|-------------3---------|
   Iamiam cedat tristia    Estas redit, nunc recedit  Hiemis  saevitia.      Iamiam cedat tristia 
   illi mens est misera,   qui nec vivit, nec lascivit sub Estatis dextera.  illi mens est misera,
   simus jussu Cypridis    gloriantes  et letantes   pares esse Paridis.     simus jussu Cypridis

   D  +     +  G  +     +    D  +     +  G  +        D  +     +  G  +     +    D  +     +  G  +     +
E|-------------------------|----0------------------|-------------------------|-------------------------|
B|-3--3--3-p0--3--3--3-p0--|-3-----3-p1--0-h1--3---|-3--3--3-p1--3--3--3-p0--|-3--3--3-p1--3--3--3-p0--|
G|-2--2--2-----0--0--0-----|-2-----2-----0-----0---|-------------0--0--0-----|-------------0--0--0-----|
D|-------0-----------0-----|-------0-----------0---|-------0-----------0-----|-------0-----------0-----|
A|-------------------------|-0---------------------|-0-----------------------|-0-----------------------|
E|-2-----------3-----------|-------------3---------|-------------3-----------|-------------3-----------|
   Estas redit, nunc recedit Hiemis  saevitia.       Estas redit, nunc recedit, Estas redit, nunc recedit 
   qui nec vivit, nec lascivit sub Estatis dextera. qui nec vivit, nec lascivit, qui nec vivit, nec lascivit
   gloriantes  et letantes   pares esse Paridis.     gloriantes  et letantes,  gloriantes  et letantes

   D  +     +     +  G        +     +         +           +     +               +     +
E|----0-----------0--3a--|-------------3a--------|-3a------------------|-3a------------------|
B|-3-----3-p1--3-----0a--|-------------0a--------|-0a------------------|-0a------------------|
G|-------------------0a--|----0-----0--0a-----0--|-0a-----0-----0------|-0a-----0-----0------|
D|-------0-----------0a--|-------0---------0-----|-----0-----------0---|-----0-----------0---|
A|-0---------------------|-------------2a--------|-----------2---------|-----------2---------|
E|-------------2---------|-3---------------------|-3a------------------|-3a------------------|
   Hiemis  saevitia.                   Aaah        Aaah!
   sub Estatis dextera.                Aaah        Aaah!
   pares esse Paridis                  Aaah        Aaah!

************************************                                 

|(0)  Play only in 3rd (final) pass
| a   Arpeggio (harp-like: pick all strings upward in fast sequence) 
| h   Hammer-on
| p   Pull-off
| /   Slide up
                                          
Outros vídeos desta música
    9 exibições
      • ½ Tom
      • A
      • Bb
      • B
      • C
      • Db
      • D
      • Eb
      • E
      • F
      • F#
      • G
      • Ab
    • Adicionar à lista

    Afinação da cifra

    Afinador online

      0 comentários

      Ver todos os comentários

      Conseguiu tocar?

      0Tocaram0Ainda não

      Grave um vídeo tocando Carmina Burana - Ecce Gratum e nos envie!

      Toque também

      1. Imagem do artista Richard WagnerMarcha Nupcial Richard Wagner
      2. Imagem do artista Georges BizetCarmen Georges Bizet
      3. Imagem do artista Giuseppe VerdiLa Donna È Mobile Giuseppe Verdi
      4. Imagem do artista Franz LisztHungarian Rhapsody 2 Franz Liszt

      Entre para o Cifra Club PRO

      Tenha acesso a benefícios exclusivos no App e no Site

      • Chega de anúncios

      • Badges exclusivas

      • Mais recursos no app do Afinador

      • Atendimento Prioritário

      • Aumente seu limite de lista

      • Ajude a produzir mais conteúdo

      Cifra Club Pro

      Aproveite o Cifra Club com benefícios exclusivos e sem anúncios
      Cifra Club Pro
      Aproveite o Cifra Club com benefícios exclusivos e sem anúncios
      OK