Cifra Club

Si Puer Cum Puellula

Carl Orff

Cifra: Principal (violão e guitarra)
Selo Cifra Club: esta cifra foi revisada para atender aos critérios oficiais da nossa Equipe de Qualidade.
tom: A
E|-----|--------------|--------------|--------------|-------------|-----------|---------|
B|-----|--------------|--------------|--------------|-------------|-----------|---------|
G|-----|--------------|--------------|--------------|-------------|--4--2--4--|--2--4---|
D|-----|--------------|--------------|--------------|-------------|-----------|---------|
A|--5--|--5--5--5--4--|--5--5--5--5--|--5--5--5--4--|--5--5--5----|-----------|---------|
E|-----|--------------|--------------|--------------|-------------|-----------|---------|
   Si    pu-er cum pu - el- lu- la mo- re-re-tur in   Ca lu la      Fe-

E|-----------|--------|-----------|
B|-----------|-----3--|-----------|
G|--2--4--2--|--4-----|--4--2--4--|
D|-----------|--------|-----------|
A|-----------|--------|-----------|
E|-----------|--------|-----------|
              lix con- iunc- ti-o

E|-----|--------------|--------------|--------------|-------------|-----------|---------|
B|-----|--------------|--------------|--------------|-------------|-----------|---------|
G|-----|--------------|--------------|--------------|-------------|--4--2--4--|--2--4---|
D|-----|--------------|--------------|--------------|-------------|-----------|---------|
A|--5--|--5--5--5--4--|--5--5--5--5--|--5--5--5--4--|--5--5--5----|-----------|---------|
E|-----|--------------|--------------|--------------|-------------|-----------|---------|
   Si    pu-er cum pu - el- lu- la mo- re-re-tur in   Ca lu la      Fe-

E|-----------|--------|-----------|
B|-----------|-----3--|-----------|
G|--2--4--2--|--4-----|--4--2--4--|
D|-----------|--------|-----------|
A|-----------|--------|-----------|
E|-----------|--------|-----------|
              lix con- iunc- ti-o

E|-----|--------------|-----------|-----------------|-----------|
B|-----|--------------|-----------|-----------------|-----------|
G|-----|--------------|-----------|--------6--------|--4--------|
D|--4--|--4--4--2--4--|--2--------|--7--9-----9--7--|-----6--4--|
A|-----|--------------|-----5--5--|-----------------|-----------|
E|-----|--------------|-----------|-----------------|-----------|
   A -   mo-re sus-cres -cen   te    pa-ri   ter e     me-di-o

E|-----|--------------|-----------|-----------------|-----------|
B|-----|--------------|-----------|-----------------|-----------|
G|-----|--------------|-----------|--------6--------|--4--------|
D|--4--|--4--4--2--4--|--2--------|--7--9-----9--7--|-----6--4--|
A|-----|--------------|-----5--5--|-----------------|-----------|
E|-----|--------------|-----------|-----------------|-----------|
   A -   mo-re sus-cres -cen   te    pa-ri   ter e     me-di-o

E|-----|--------------|--------------|--------------|-----------|
B|-----|--------------|--------------|--------------|-----------|
G|-----|--------------|--------------|--------------|-----------|
D|--4--|--4--4--2--4--|--2--------4--|--4--4--2--4--|--2--------|
A|-----|--------------|-----5--5-----|--------------|-----5--5--|
E|-----|--------------|--------------|--------------|-----------|
   A-   vul-so pro-cul   te-di-o  a-   vul-so  pro-cul te-di-o

E|-----|--------------|--------------|-------| –------|-------------|
B|--7--|--------------|-----------7--|--------------|-------------|
G|-----|--------------|--------------|--------------|-------------|
D|-----|--------4--7--|--6--4--4-----|--------4--7--|--7p6--4--4--|
A|-----|-----5--------|--------------|-----5--------|-------------|
E|-----|--7-----------|--------------|--7-----------|-------------|
   Fit   Lu-dus in-ef - fa-bi-lis mem-bris la-cer-tis    la-bis-is

E|-----|--------------|--------------|-------| –------|-------------|
B|--7--|--------------|-----------7--|--------------|-------------|
G|-----|--------------|--------------|--------------|-------------|
D|-----|--------4--7--|--6--4--4-----|--------4--7--|--7p6--4--4--|
A|-----|-----5--------|--------------|-----5--------|-------------|
E|-----|--7-----------|--------------|--7-----------|-------------|
   Fit   Lu-dus in-ef - fa-bi-lis mem-bris la-cer-tis    la-bis-is

E|-----|--------------|--------------|--------------|-------------|-----------|---------|
B|-----|--------------|--------------|--------------|-------------|-----------|---------|
G|-----|--------------|--------------|--------------|-------------|--4--2--4--|--2--4---|
D|-----|--------------|--------------|--------------|-------------|-----------|---------|
A|--5--|--5--5--5--4--|--5--5--5--5--|--5--5--5--4--|--5--5--5----|-----------|---------|
E|-----|--------------|--------------|--------------|-------------|-----------|---------|
   Si    pu-er cum pu - el- lu- la mo- re-re-tur in   Ca lu la      Fe-

E|-----------|--------|-----------|
B|-----------|-----3--|-----------|
G|--2--4--2--|--4-----|--4--2--4--|
D|-----------|--------|-----------|
A|-----------|--------|-----------|
E|-----------|--------|-----------|
              lix con- iunc- ti-o
Outros vídeos desta música
    10 exibições
      • ½ Tom
      • A
      • Bb
      • B
      • C
      • Db
      • D
      • Eb
      • E
      • F
      • F#
      • G
      • Ab
    • Adicionar à lista

    Afinação da cifra

    Afinador online

      0 comentários

      Ver todos os comentários

      Conseguiu tocar?

      0Tocaram0Ainda não

      Grave um vídeo tocando Si Puer Cum Puellula e nos envie!

      Toque também

      1. Imagem do artista Richard WagnerMarcha Nupcial Richard Wagner
      2. Imagem do artista Georges BizetCarmen Georges Bizet
      3. Imagem do artista Giuseppe VerdiCaro Mio Ben Giuseppe Verdi
      4. Imagem do artista Franz LisztHungarian Rhapsody 2 Franz Liszt

      Entre para o Cifra Club PRO

      Tenha acesso a benefícios exclusivos no App e no Site

      • Chega de anúncios

      • Mais recursos no app do Afinador

      • Atendimento Prioritário

      • Aumente seu limite de lista

      • Ajude a produzir mais conteúdo

      Cifra Club Pro

      Aproveite o Cifra Club com benefícios exclusivos e sem anúncios
      Cifra Club Pro
      Aproveite o Cifra Club com benefícios exclusivos e sem anúncios
      OK