Cifra Club

Cabeça Voando

Os Barões da Pisadinha

Cifra: Principal (violão e guitarra)
tom: B
           D#m
Hoje eu acordei bem mais sensível do que ontem
                  B
Para os meus sentimentos
    F#
São recaídas, sei que vai passar
                C#
É só questão de tempo

      D#m
São 5 horas da manhã
                           B
E eu perturbando o dono do bar
F#
Pedindo uma cerveja e cigarros
           C#
Pra me acalmar

G#m             B
Não é assim tão fácil
           F#                   C#
Esquecer alguém que você tanto amou
G#m                 B              F#
Dá pra ver no meu rosto o meu sofrimento
                 C#
Meu semblante mudou

              D#m
E no sinal parado e a cabeça voando
                B
E no som do meu carro, a música tocando
                 F#
Eu vou pensando nela
                 C#
Eu vou pensando nela
              D#m
E no sinal parado e a cabeça voando
               B
E atrás do meu carro, os outros buzinando
                 F#
Eu vou pensando nela
                 C#
Eu vou pensando nela

E|--6-6-9-11~--6-6-6-6-9-16-14-13-9-11~----------------|
B|-----------------------------------------------------|
G|-----------------------------------------------------|
D|-----------------------------------------------------|
A|-----------------------------------------------------|
E|-----------------------------------------------------|

E|--6-6-6-6-7-9-9-9-7-6h7p6~-----------11-9~-----------|
B|----------------------------7p6-7p6------------------|
G|-----------------------------------------------------|
D|-----------------------------------------------------|
A|-----------------------------------------------------|
E|-----------------------------------------------------|

E|-----------------------------------------------------|
B|--7p6-7-9-9-9-7h9---7-9~---9-7-6---------------------|
G|------------------6--------------8~------------------|
D|-----------------------------------------------------|
A|-----------------------------------------------------|
E|-----------------------------------------------------|

           D#m
Hoje eu acordei bem mais sensível do que ontem
                  B
Para os meus sentimentos
    F#
São recaídas, sei que vai passar
                C#
É só questão de tempo

      D#m
São 5 horas da manhã
                           B
E eu perturbando o dono do bar
F#
Pedindo uma cerveja e cigarros
           C#
Pra me acalmar

G#m             B
Não é assim tão fácil
           F#                   C#
Esquecer alguém que você tanto amou
G#m                 B              F#
Dá pra ver no meu rosto o meu sofrimento
                 C#
Meu semblante mudou

              D#m
E no sinal parado e a cabeça voando
                B
E no som do meu carro, a música tocando
                 F#
Eu vou pensando nela
                 C#
Eu vou pensando nela
              D#m
E no sinal parado e a cabeça voando
               B
E atrás do meu carro, os outros buzinando
                 F#
Eu vou pensando nela
                 C#
Eu vou pensando nela

              D#m
E no sinal parado e a cabeça voando
                B
E no som do meu carro, a música tocando
                 F#
Eu vou pensando nela
                 C#
Eu vou pensando nela
              D#m
E no sinal parado e a cabeça voando
               B
E atrás do meu carro, os outros buzinando
                 F#
Eu vou pensando nela
                 C#
Eu vou pensando nela

E|--6-6-9-11~--6-6-6-6-9-16-14-13-9-11~----------------|
B|-----------------------------------------------------|
G|-----------------------------------------------------|
D|-----------------------------------------------------|
A|-----------------------------------------------------|
E|-----------------------------------------------------|

E|--6-6-6-6-7-9-9-9-7-6h7p6~-----------11-9~-----------|
B|----------------------------7p6-7p6------------------|
G|-----------------------------------------------------|
D|-----------------------------------------------------|
A|-----------------------------------------------------|
E|-----------------------------------------------------|

E|-----------------------------------------------------|
B|--7p6-7-9-9-9-7h9---7-9~-----------------------------|
G|------------------6----------------------------------|
D|-----------------------------------------------------|
A|-----------------------------------------------------|
E|-----------------------------------------------------|

E|--6-6-9-11~--6-6-6-6-9-16-14-13-9-11~----------------|
B|-----------------------------------------------------|
G|-----------------------------------------------------|
D|-----------------------------------------------------|
A|-----------------------------------------------------|
E|-----------------------------------------------------|

E|--6-6-6-6-7-9-9-9-7-6h7p6~-----------11-9~-----------|
B|----------------------------7p6-7p6------------------|
G|-----------------------------------------------------|
D|-----------------------------------------------------|
A|-----------------------------------------------------|
E|-----------------------------------------------------|

E|-----------------------------------------------------|
B|--7p6-7-9-9-9-7h9---7-9~---9-7-6---------------------|
G|------------------6--------------8~------------------|
D|-----------------------------------------------------|
A|-----------------------------------------------------|
E|-----------------------------------------------------|
00:00 / 00:00
Outros vídeos desta música
Repetir
Outros vídeos desta música
Composição de Marcelo Freitas
Colaboração e revisão:
67.932 exibições
  • Simplificar cifra
    • ½ Tom
    • A
    • Bb
    • B
    • C
    • Db
    • D
    • Eb
    • E
    • F
    • F#
    • G
    • Ab
  • Adicionar à lista

    0 comentários

    Ver todos os comentários

    Conseguiu tocar?

    14 Tocaram 5 Ainda não

    Grave um vídeo tocando Cabeça Voando e nos envie!

    Entre para oCifra Club PRO

    Tenha acesso a benefícios exclusivos no App e no Site

    • Chega de anúncios

    • Prioridade de compra em lançamentos

    • Mais recursos no app do Afinador

    • Atendimento Prioritário

    • Descontos nos produtos Cifra Club

    • Ajude a produzir mais conteúdo

    00:00 / 00:00

    Cifra Club Pro

    Aproveite o Cifra Club com benefícios exclusivos e sem anúncios
    Cifra Club Pro
    Aproveite o Cifra Club com benefícios exclusivos e sem anúncios
    OK