Cifra Club

Um Bilhete Pra Didi

Novos Baianos

Cifra: Principal (violão e guitarra)
Selo Cifra Club: esta cifra foi revisada para atender aos critérios oficiais da nossa Equipe de Qualidade.
tom: D
Parte um - 4x

E|----------------------------------------------------------------------------------------|
B|-0-0-0-0-0-0-0-0-0-0-5-0-0-0-9-0-0-0-5-0-0-0-9-0-0-0-4-0-0-0-9-10-0-0-4-0-0-0-7-0-5-0-4-|
G|----------------------------------------------------------------------------------------|
D|----------------------------------------------------------------------------------------|
A|----------------------------------------------------------------------------------------|
E|----------------------------------------------------------------------------------------|

  --------------------------------------------------
  -0-0-0-9-10-0-0-4-0-0-0-7-0-0-0-5-0-0-0-7-0-0-0-5-
  --------------------------------------------------
  --------------------------------------------------
  --------------------------------------------------
  --------------------------------------------------

 Parte dois - 2x

E|-0-0-0-0-12-0-0-0-10-0-0-0-9-0-0-0-7-0-0-0-5-4-2-0-7-4-0---|
B|-----------------------------------------------------------|
G|-----------------------------------------------------------|
D|-----------------------------------------------------------|
A|-----------------------------------------------------------|
E|-----------------------------------------------------------|

E|-0-0-0-0-12-0-0-0-10-0-0-0-9-0-0-0-7-0-0-0-5-4-2-0-0-------|
B|-----------------------------------------------------------|
G|-----------------------------------------------------------|
D|-----------------------------------------------------------|
A|-----------------------------------------------------------|
E|-----------------------------------------------------------|

Parte três - 2x


E|----14-12----12-16-12-----------------|
B|----------14----------14--------------|
G|--------------------------------------|
D|--------------------------------------|
A|--------------------------------------|
E|--------------------------------------|

E|-0-2-0---0-4-0---------|
B|-------2-------2-------|
G|-----------------------|
D|-----------------------|
A|-----------------------|
E|-----------------------|

Parte quatro - 2x

E|-10h12-9h10-7h9-5h7-4h5-2h4-4-4-4-4-4-------------|
B|--------------------------------------------------|
G|--------------------------------------------------|
D|--------------------------------------------------|
A|--------------------------------------------------|
E|--------------------------------------------------|

E|-10h12-9h10-7h9-5h7-4h5-2h4-----------------------|
B|--------------------------------------------------|
G|--------------------------------------------------|
D|--------------------------------------------9-9---|
A|--------------------------------------------7-7---|
E|--------------------------------------------------|
Outros vídeos desta música
6.315 exibições
    • ½ Tom
    • A
    • Bb
    • B
    • C
    • Db
    • D
    • Eb
    • E
    • F
    • F#
    • G
    • Ab
  • Adicionar à lista

Afinação da cifra

Afinador online

    0 comentários

    Ver todos os comentários

    Entre para o Cifra Club PRO

    Tenha acesso a benefícios exclusivos no App e no Site

    • Chega de anúncios

    • Mais recursos no app do Afinador

    • Atendimento Prioritário

    • Aumente seu limite de lista

    • Ajude a produzir mais conteúdo

    Cifra Club Pro

    Aproveite o Cifra Club com benefícios exclusivos e sem anúncios
    Cifra Club Pro
    Aproveite o Cifra Club com benefícios exclusivos e sem anúncios
    OK