Cifra Club

Gimme A D

Parkway Drive

Tab de baixo: Principal
Album/EP:		KILLING WITH A SMILE 
Label:		RESIST/EPITAPH RECORDS
Bassist:		JIA O’CONNOR (LUKE KILPATRICK)
Tuning:		Drop/Low B (EF#EB)

INTRO x 4 (0.04)

G|------------------------|
D|------------------------|
A|------------------------|
E|--0~--333-333-222-222---|

PRE VERSE 1 x 1

G|-----------------------|
D|-----------------------|
A|-----------------------|
E|--0~-3~-5~--0x-3~-5~---|

VERSE 1 x 4

G|--------------------------------|
D|--------------------------------|
A|--------------------------------|
E|-222222222222-33333333-55555555-|

CHORUS PT 1 x 3

G|--------------------------------------------|
D|--------------------------------------------|
A|----------------------------------5---------|
E|-0-00000000-00000000-00000000-5-7---6-5-7---|

CHORUS PT 2 x 3

G|--------------------------------------------|
D|--------------------------------------------|
A|--------------------------------------------|
E|-0-00000000-00000000-00000000--333-444------|


VERSE 2 PT 1 x2

G|------------------|
D|------------------|
A|------------------|
E|--55--33--11--33--|

VERSE 2 PT 2 x2

G|------------------------|
D|------------------------|
A|------------------------|
E|--5~--3~--1~--3~-753532-|


VERSE 2 PT 3 x1

G|------------------|
D|------------------|
A|------------------|
E|--0~--0x----------|

VERSE 2 PT 4 x4

G|----------------------------------|
D|----------------------------------|
A|----------------------------------|
E|--5555-555-3333-333-1111-111-333--|


BRIDGE PT 1 x 1

G|------|
D|------|
A|------|
E|--3~--|

BRIDGE PT 2 x 3

G|----------------------------------|
D|----------------------------------|
A|----------------------------------|
E|--33333333333333-5555555555555----|

BRIDGE PT 3 x 2

G|-----------------------------------------|
D|-----------------------------------------|
A|-----------------------------------------|
E|-8-7-10-8--8-7-10-8--8-7-10-8--8-7-10-8- |

G|----------------------------------|
D|----------------------------------|
A|----------------------------------|
E|-5-3-6-5--5-3-6-5-33333333333333--|

BRIDGE PT 4 x 4

G|------------------|
D|------------------|
A|------------------|
E|--55--33--11--33--|

OUTRO x 2

G|--------------------------------------------|
D|--------------------------------------------|
A|----------------------------------5---------|
E|-0-00000000-00000000-00000000-5-7---6-5-7---|


exibições 156
Composição: Parkway Drive

0 comentários

mostrar mais comentários

Conseguiu tocar?

0 tocaram 0 ainda não

Grave um vídeo tocando Gimme A D e mande pra gente!

00:00 / 00:00
outros vídeos desta música
repetir qualidade Automático
Outros vídeos desta música
00:00 / 00:00
Automático
OK