Cifra Club

Aprenda

Romance Is Dead

Parkway Drive

Cifra: Versão 2 (violão e guitarra)
Tom: A
One of my first tab

Email me problems =)

Daniel_R.H@*

Tunning Drop B

|-----------------------------------------------|
|-----------------------------------------------|
|-----------------------------------------------|
|--3--3------3-------------3---3-------3---2----|
|---7---7-3-5--5-00-000000---7---7-3--5---5--3-0|
|----------------00-000000----------------------|

|-----------------------------------------------|
|------------------------------------------6-6-5|
|------------------------------------------7-7-7|
|--3--3------3-------------3---3-------3--------| Play x 3
|---7---7-3-5--5-00-000000---7---7-3--5--5------|
|----------------00-000000----------------------|

Next bit goes


|---------------------------||--------------------------|
|---------------------------||--------------------------|
|----------3--------------3-||----------3------------3--|
|-2---------5-3-5-3-5--3----||-2---------3s5-3-2-3-2--2-|
|---0-0-0-------------------||---0-0-0------------------|
|---0-0-0-------------------||---0-0-0------------------|
Repeat 4 times

|-----------------------------------------|
|-----------------------------------------|
|-----------------------------------------|
|-0-0-0-0-00000-----0-0-0-0-0000----------| play x 4
|-0-0-0-0-00000-777-0-0-0-0-0000-555-3-3--|
|-0-0-0-0-00000-----0-0-0-0-0000----------|

Repeat


|-----------------------------------------------|
|-----------------------------------------------|
|-----------------------------------------------|
|--3--3------3-------------3---3-------3---2----|
|---7---7-3-5--5-00-000000---7---7-3--5---5--3-0|
|----------------00-000000----------------------|

|-----------------------------------------------|
|------------------------------------------6-6-5|
|------------------------------------------7-7-7|
|--3--3------3-------------3---3-------3--------| Play x 2
|---7---7-3-5--5-00-000000---7---7-3--5--5------|
|----------------00-000000----------------------|

At 1:39 play
|-------------------|
|-------------------|
|-------------------|
|-------------------|
|-3-2-1-0--3-2-1-0--|
|-3-2-1-0--3-2-1-0--|


|---------------------|
|---------------------|
|---------------------|
|-000--000--000--000--|
|-000--000--000--000--|  Play x 3
|-000--000--000--000--| 

At 1:47 play this
|----------------|
|----------------|
|----------------|
|--3--3------3---|
|---7---7-3-5--5-|
|----------------|


|----------------------------------------------------------|
|----------------------------------------------------------|
|----------------------------------------------------------|
|-0-0-0--0--0---0-0-0--0--0---0-0-0--0--0---7-3--3---------|
|-0-0-0--0--0---0-0-0--0--0---0-0-0--0--0-------7--5-3---3-|
|-0-0-0--0--0---0-0-0--0--0---0-0-0--0--0--------------7---|

|----------------------------------------------------------|
|----------------------------------------------------------|
|----------------------------------------------------------|
|-0-0-0--0--0---0-0-0--0--0---0-0-0--0--0------------------|
|-0-0-0--0--0---0-0-0--0--0---0-0-0--0--0------------------|
|-0-0-0--0--0---0-0-0--0--0---0-0-0--0--0------------------|


At 2:02 he says Cry Me a fucking river bitch! and it goes into.
|------------------------------------------------------------------|
|------------------------------------------------------------------|
|-------------------------------------------14-10----10------------|
|-0-00000--0--0---00000-0--0--00000--0--0---------14----12-10----10|
|-0-00000--0--0---00000-0--0--00000--0--0---------------------12---|
|-0-00000--0--0---00000-0--0--00000--0--0--------------------------|
x2

Then

|---------------------------||--------------------------|
|---------------------------||--------------------------|
|----------3--------------3-||----------3------------3--|
|-2---------5-3-5-3-5--3----||-2---------3s5-3-2-3-2--2-|
|---0-0-0-------------------||---0-0-0------------------|
|---0-0-0-------------------||---0-0-0------------------|
5 times

Then Play

|---------------------------|
|---------------------------|
|-----------3-------------3-|
|------------5-3-5-3-5--3---|
|-2-0-0-0-------------------|
|---0-0-0-------------------|

Play this at 2:50
|----------------------------------------|
|----------------------------------------|
|------------------3--3-5-3---3----------|
|-0-0-0-0--3s5-3-5--5-------5--5--3--5s3-|
|-0-0-0-0--------------------------------|
|-0-0-0-0--------------------------------|

Then you play
|--------------------------|
|--------------------------|
|--------------------------|
|--------------------------|
|-0--0--0--0--0--0--0--0---|
|-0--0--0--0--0--0--0--0---|

Then go into this

Tremmo pick this part 2:57
            x4                x4
|----------------------|--------------------|
|----------------------|--------------------|
|----------------------|--------------------|
|-12-12-12-10-10-9-9-9-|-10-10-10-7-7-8-8-8-|
|----------------------|--------------------|
|----------------------|--------------------|
Repeat 4 times


This part comes back up again, except play it a bit slower.
|--------------------------------------------|
|--------------------------------------------|
|--------------------------------------------|
|-0-0-0-0-00000-----0-0-0-0-0000-------------|
|-0-0-0-0-00000-777-0-0-0-0-0000-555---------| Repeat twice
|-0-0-0-0-00000-----0-0-0-0-0000-------------|

                
For this part ALL notes are tapped

                x6          x6          
|-22p16--22p16----|-19p12--19p12----|
|-----------------|-----------------|
|--------19p0-----|--------18p0-----|
|-----------------|-----------------|
|-----------------|-----------------|
|-----------------|-----------------|

Repeat

|----------------------------------------------|
|----------------------------------------------|
|---12*----------------------------------------|
|-----10-9------9*-----------------------------|
|-7---------5----10-12--3--10-12-14-5-14-10-12-|
|-7---------5-----------3-----------5----------|

Then the tapping bit will come in again at 3:59

At 4:13 keep repeating this
|-------------------------------|
|-------------------------------|
|---12--------------------------|
|------10-9---9-9---------------|
|-7---------5----10-12----------|
|-7---------5-------------------|

Tapping starts back up at 

4:27

I tabbed it by ear as well as I could. It is the COMPLETE SONG.
Composição de Parkway Drive
86 exibições
    • ½ Tom
    • A
    • Bb
    • B
    • C
    • Db
    • D
    • Eb
    • E
    • F
    • F#
    • G
    • Ab
  • Adicionar à lista

    0 comentários

    Mostrar mais comentários

    Conseguiu tocar?

    0 Tocaram 0 Ainda não

    Grave um vídeo tocando Romance Is Dead e mande pra gente!

    00:00 / 00:00
    outros vídeos desta música
    repetir qualidade Automático
    Outros vídeos desta música
    00:00 / 00:00
    Automático

    Cifra Club Pro

    Aproveite o Cifra Club com benefícios exclusivos e sem anúncios
    7 dias grátis
    Cifra Club Pro
    Aproveite o Cifra Club com benefícios exclusivos e sem anúncios
    7 dias grátis
    OK