Cifra Club

It´s a Sin

Pet Shop Boys

Tab de baixo: Principal
[Intro]

G|--------------------------------------------------------------|
D|-------------------------------3------------------------------|
A|-3--3--3--3----------3-------------------1---------6----------|
D|------------------------------------------------------------6-|

G|-------------------------------------------------------------------|
D|-------------------------------3--3--3--3--------------------------|
A|--------------------3--3--3--3-------------1--1--1--1---6--6--6--6-|
D|-3--------5--------------------------------------------------------|

G|------------------------------------------------------------------|
D|-6--6--6--6---3--3--3--3---5--5--5--5---5--5--5--5---5--5--5--3-2-|
A|------------------------------------------------------------------|
D|------------------------------------------------------------------|

[Verso 1]

G|------------------------------------------------------------------------|
D|------------3--3--3--3--------------------------6--6--6--6---3--3--3--3-|
A|-3--3--3--3-------------1--1--1--1---6--6--6--6-------------------------|
D|------------------------------------------------------------------------|

G|------------------------------------------------------------------------|
D|-5--5--5--5--5--5--5--5---5--5--5--3-2------------3--3--3--3------------|
A|---------------------------------------3--3--3--3------------1--1--1--1-|
D|------------------------------------------------------------------------|

G|-------------------------------------------------------------|
D|------------6--6--6--6---3--3--3--3---5--5--5--5--5--5--5--5-|
A|-6--6--6--6--------------------------------------------------|
D|-------------------------------------------------------------|

G|--------------|
D|-5--5--5--3-2-|
A|--------------|
D|--------------|

[Refrão]

G|-----------------------------------------------------------|
D|-----------------------------------------------------------|
A|-3--3--3--3-------------3--3--3--3-------------------------|
D|------------6--6--6--6-------------6--6--6--6---3--3--3--3-|

G|----------------------------------------------------|
D|------------------------------------------------3-2-|
A|----------------------------------------------------|
D|-5--5--5--5---3--3--3--3---5--5--5--5---5--5--5-----|

[Verso 2]

G|------------------------------------------------------------------------|
D|------------3--3--3--3--------------------------6--6--6--6---3--3--3--3-|
A|-3--3--3--3-------------1--1--1--1---6--6--6--6-------------------------|
D|------------------------------------------------------------------------|

G|------------------------------------------------------------------------|
D|-5--5--5--5--5--5--5--3-2------------3--3--3--3-------------------------|
A|--------------------------3--3--3--3------------1--1--1--1---6--6--6--6-|
D|------------------------------------------------------------------------|

G|-----------------------------------------------------------------|
D|-6--6--6--6---3--3--3--3---5--5--5--5--5--5--5--5---5--5--5--3-2-|
A|-----------------------------------------------------------------|
D|-----------------------------------------------------------------|

[Refrão]

G|-----------------------------------------------------------|
D|-----------------------------------------------------------|
A|-3--3--3--3-------------3--3--3--3-------------------------|
D|------------6--6--6--6-------------6--6--6--6---3--3--3--3-|

G|---------------------------------------------------|
D|---------------------------------------------------|
A|---------------------------------------------------|
D|-5--5--5--5---3--3--3--3---5--5--5--5---5--5--5--5-|

[Ponte]

G|---------------------------------------------------------------------|
D|---------------------------------------------------------------------|
A|-3--------------------------3----1----3------------------------------|
D|----------1--------5----------------------------1---------5--------6-|

G|------------|
D|----------5-|
A|-1----------|
D|------------|

[Verso 3]

G|------------------------------------------------------------------------|
D|------------3--3--3--3--------------------------6--6--6--6---3--3--3--3-|
A|-3--3--3--3-------------1--1--1--1---6--6--6--6-------------------------|
D|------------------------------------------------------------------------|

G|------------------------------------------------------------------------|
D|-5--5--5--5--5--5--5--5---5--5--5--3-2------------3--3--3--3------------|
A|---------------------------------------3--3--3--3------------1--1--1--1-|
D|------------------------------------------------------------------------|

G|-------------------------------------------------------------|
D|------------6--6--6--6---3--3--3--3---5--5--5--5--5--5--5--5-|
A|-6--6--6--6--------------------------------------------------|
D|-------------------------------------------------------------|

G|--------------|
D|-5--5--5--3-2-|
A|--------------|
D|--------------|

[Refrão]

G|-----------------------------------------------------------|
D|-----------------------------------------------------------|
A|-3--3--3--3-------------3--3--3--3-------------------------|
D|------------6--6--6--6-------------6--6--6--6---3--3--3--3-|

G|---------------------------------------------------|
D|---------------------------------------------------|
A|---------------------------------------------------|
D|-5--5--5--5---3--3--3--3---5--5--5--5---5--5--5--5-|

[Interlúdio]

G|------------------------------------------------------------------------|
D|------------3--3--3--3--------------------------6--6--6--6---3--3--3--3-|
A|-3--3--3--3-------------1--1--1--1---6--6--6--6-------------------------|
D|------------------------------------------------------------------------|

G|------------------------------------------------------------------------|
D|-5--5--5--5--5--5--5--5---5--5--5--3-2------------3--3--3--3------------|
A|---------------------------------------3--3--3--3------------1--1--1--1-|
D|------------------------------------------------------------------------|

G|-------------------------------------------------------------|
D|------------6--6--6--6---3--3--3--3---5--5--5--5--5--5--5--5-|
A|-6--6--6--6--------------------------------------------------|
D|-------------------------------------------------------------|

G|--------------|
D|-5--5--5--3-2-|
A|--------------|
D|--------------|

[Final]

G|------------------------------------------------------------------------|
D|------------------------------------------------------------------------|
A|-3--3--3--3--3--3--3--3---3--3--3--3--3--3--3--3---3----3----3----3---3-|
D|------------------------------------------------------------------------|

G|-------------------------------------------------|
D|-------------------------------------------------|
A|-3--3--3--3--3--3--3--3---3--3--3--3--3--3--3--3-|
D|-------------------------------------------------|
00:00 / 00:00
Outros vídeos desta música
Repetir
Outros vídeos desta música
Compositor não encontrado.
Colaboração e revisão:
  • Denilson SANTOS
19 exibições

0 comentários

Ver todos os comentários

Conseguiu tocar?

0 Tocaram 0 Ainda não

Grave um vídeo tocando It´s a Sin e nos envie!

00:00 / 00:00

Cifra Club Pro

Aproveite o Cifra Club com benefícios exclusivos e sem anúncios
Cifra Club Pro
Aproveite o Cifra Club com benefícios exclusivos e sem anúncios
OK