Cifra Club

Aprenda

Carinhoso

Pixinguinha

Cifra: Versão 5 (violão e guitarra)
tom: A
     C2
     Q    Q    Q    Q       Q    Q    Q       Q    Q       Q    Q    Q    Q
E|----------------------|-----------------|------------|----------------------|
B|--2--------------2----|------------2----|------------|-------2--------------|
G|-------4----2----2----|-------2---------|------------|--2-------------------|
D|-----------------2----|--2--------------|--2----3----|------------3----4----|
A|-----------------0----|-----------------|-------0----|-----------------0----|
E|----------------------|-----------------|------------|----------------------|

  Q    Q    Q    Q       Q    Q    Q    Q       Q    Q    Q    Q
----------------------|----------------------|----------------------|
-------2--------------|-------2----2---------|-------2--------------|
--2-------------------|--2--------------4----|--2----2---------2----|
------------4----3----|----------------------|-------2----2---------|
------------0----0----|----------------------|-------0--------------|
----------------------|----------------------|----------------------|

  Q    Q    Q    Q       Q    Q    Q    Q       Q    Q    Q    Q
----------------------|----------------------|----------------------|
--2--------------2----|-----------------2----|-----------------2----|
------------2---------|------------2---------|------------2---------|
-------3--------------|--3----4--------------|--4----3--------------|
-------0--------------|-------0--------------|-------0--------------|
----------------------|----------------------|----------------------|

  Q    Q    Q    Q       Q    Q    Q    Q       Q    Q    Q    Q
--0--------------0----|-----------------0----|-----------------0----|
-------4----2---------|------------0---------|------------0---------|
----------------------|--2----3--------------|--3----2--------------|
----------------------|----------------------|----------------------|
--0--------------4----|-------4--------------|-------4--------------|
----------------------|----------------------|----------------------|

  Q    Q    Q    Q       Q    Q    Q    Q       Q     Q    Q    Q
-----------------4----|--4---------4----7----|-----------------------|
--5----4----2----5----|--6----8----6----7----|-------10----9----7----|
--2---------2----4----|--4---------4----8----|-------------8----8----|
-----------------6----|-----------------7----|-------------7----7----|
--4---------4----4----|--4-------------------|--9--------------------|
----------------------|-----------------7----|-------------7---------|

  Q    Q    Q    Q       Q    Q    Q    Q       Q    Q    Q    Q
--7----2----0----2----|--0----5----0---------|-----------------2----|
--7----0----0----2----|--2----2--------------|--3----3----2----2----|
--8----1----1----0----|--0----0---------2----|-------3----3----3----|
----------------------|-----------------4----|-------2----2---------|
-----------------0----|------------5---------|----------------------|
-------0--------------|----------------------|-------2--------------|

  Q    Q    Q    Q       Q    Q    Q    Q       Q    Q    Q    Q
----------------------|----------------------|----------------------|
----------------------|------------2---------|----------------------|
--6---------4----6----|--4--------------2----|--2---------2----2----|
-------4--------------|-------7---------1----|--1---------1----1----|
-------5---------5----|------------2---------|----------------------|
--7-------------------|----------------------|-------2--------------|

  Q    Q    Q    Q       Q    Q    Q    Q       Q    Q    Q    Q
----------------------|----------------------|-----------------5-----||
-----------------0----|-------0--------------|------------2----2-----||
-------1----1----1----|--2---------2---------|-------2---------2----*||
-------0----0----0----|----------------------|--2--------------2----*||
----------------------|------------0----4----|-----------------0-----||
--1--------------0----|----------------------|-----------------------||

  Q    Q    Q    Q       Q    Q    Q    Q       Q    Q    Q    Q
--4----5----4----2----|--0----2----0---------|----------------------|
----------------------|-----------------4----|--2----4----2---------|
----------------------|----------------------|-----------------4----|
----------------------|----------------------|----------------------|
----------------------|--4-------------------|----------------------|
----------------------|----------------------|--0-------------------|

  Q    Q    Q    Q       Q    Q    Q    Q       Q    Q    Q    Q
----------------------|----------------------|----------------------|
------------2----4----|--5----4---------4----|--2-------------------|
--2----4--------------|--5---------6---------|-------1--------------|
----------------------|----------------------|-------2--------------|
----------------------|----------------------|----------------------|
--2-------------------|--4-------------------|--0---------4----5----|

  Q    Q    Q    Q       Q    Q    Q    Q       Q    Q    Q    Q
----------------------|----------------------|--0----2----4----2----|
----------------------|-----------------4----|----------------------|
----------------------|----------------------|----------------------|
-----------------4----|--2----1--------------|----------------------|
----------------------|------------4---------|--3---------2---------|
--4----2----0---------|----------------------|----------------------|

  Q    Q    Q    Q       Q    Q    Q    Q       Q    Q    Q    Q
----------------------|------------2----4----|--2-------------------|
--5----2---------2----|--4----5----2---------|-------2----5----4----|
------------4---------|------------3---------|------------2---------|
------------2---------|----------------------|--2---------4---------|
----------------------|----------------------|------------2---------|
------------4---------|------------2---------|----------------------|

  Q    Q    Q    Q       Q    Q    Q    Q       Q    Q    Q    Q
------------0---------|--1---------2---------|--4--------------5----|
--2----0----0---------|--1---------3---------|--3-------------------|
------------1---------|--2---------4---------|--4-------------------|
--1---------2---------|-------1---------0----|-------2--------------|
----------------------|----------------------|-----------------0----|
-----------------0----|----------------------|------------0---------|

  Q    Q    Q    Q       Q    Q    Q    Q       Q    Q    Q    Q
----------------------|-------4--------------|----------------------|
--5----5---------5----|-------5----7----5----|--2-------------------|
--6----6---------6----|-------6--------------|-------2----1---------|
----------------------|----------------------|-----------------1----|
----------------------|--0--------------4----|------------3---------|
------------0---------|----------------------|----------------------|

  Q    Q    Q    Q       Q    Q    Q    Q       Q    Q    Q    Q
-----------------4----|-------2--------------|----------------------|
------------4---------|--4---------3----3----|-------3---------3----|
-------1--------------|--5---------1----1----|-------1---------4----|
----------------------|----------------------|----------------------|
------------3---------|-------2--------------|------------2---------|
--4--------------4----|----------------------|--0-------------------|

  Q    Q    Q    Q       Q    Q    Q    Q       Q    Q    Q    Q
----------------------|----------------------|----------------------|
--2----0----2----3----|--2-------------------|----------------------|
--2----1----2----4----|-------2----2---------|-------2--------------|
----------------------|-------2----2---------|-------2--------------|
----------------------|--0--------------4----|------------4---------|
-------0--------------|----------------------|--5--------------4----|

  Q    Q    Q    Q       Q    Q    Q    Q       Q    Q    Q    Q
-----------------5----|------------4----5----|--4----2--------------|
-------1----2---------|--2----2---------2----|------------2----2----|
--1-------------------|--2----2----4---------|--4---------2----2----|
--3-------------------|------------3---------|-------4--------------|
----------------------|----------------------|----------------------|
-----------------2----|----------------------|----------------------|

  Q    Q    Q    Q       Q    Q    Q    Q       Q    Q    Q    Q
--0----2----0---------|----------------------|----------------------|
-----------------3----|------------2----3----|--2----0----3----5----|
--0----2----0---------|--2----2--------------|------------4----6----|
-----------------0----|--4----4----2----4----|--2----0--------------|
--4-------------------|------------1---------|-------2--------------|
----------------------|----------------------|----------------------|

  Q    Q    Q    Q       Q    Q    Q    Q       Q    Q    Q    Q
-------5----5---------|----------------------|--0-------------------|
--6----6----5---------|-------2----1----2----|--0-------------------|
--7----7----6---------|-------2----1----2----|--1-------------------|
----------------------|-------2----1----2----|----------------------|
--5---------7----4----|--2----0---------0----|----------------------|
----------------------|----------------------|--0----0----2----4----|

  Q    Q    Q    Q       Q    Q    Q    Q
----------------------|-----------------5----||
--0----2--------------|------------2----2----||
-------2----2---------|-------2---------2----||
--0-------------------|--2-------------------||
------------0----4----|-----------------0----||
----------------------|----------------------||
Composição de João de Barro / Pixinguinha
Colaboração e revisão:
  • Ednaldo Souza
4.959 exibições
  • Simplificar cifra
    • ½ Tom
    • A
    • Bb
    • B
    • C
    • Db
    • D
    • Eb
    • E
    • F
    • F#
    • G
    • Ab
  • Adicionar à lista

    0 comentários

    Ver todos os comentários
    00:00 / 00:00
    Outros vídeos desta música
    Repetir Qualidade Automático
    Outros vídeos desta música
    00:00 / 00:00
    Automático
    Capítulos
    • Início
    • Tocando a música
    • Acordes da introdução
    • Tocando introdução
    • Ensinando dedilhado da intro
    • Acordes da primeira parte
    • Tocando primeira parte
    • Ensinando arranjo primeira parte
    • Ensinando arranjo (parte 1 e 2)
    • Ensinando arranjo (parte 3 e 4)
    • Acordes da segunda parte
    • Tocando segunda parte
    • Ensinando arranjo segunda parte
    • Ensinando arranjo (parte 1 e 2)
    • Ensinando arranjo (parte 3 e 4 - baixaria)
    • Acordes da terceira parte
    • Tocando terceira parte
    • Ensinando arranjo terceira parte
    • Ensinando arranjo (parte 1)
    • Ensinando arranjo (parte 2)
    • Ensinando arranjo (parte 3 e 4)
    • Acordes da quarta parte
    • Tocando quarta parte
    • Ensinando arranjo quarta parte
    • Ensinando arranjo (parte 1 e 2)
    • Ensinando arranjo (parte 3)
    • Ensinando arranjo (parte 4 - 6)
    • Acordes arranjo final
    • Tocando arranjo final
    • Ensinando arranjo final
    • Encerramento

    Cifra Club Pro

    Aproveite o Cifra Club com benefícios exclusivos e sem anúncios
    Cifra Club Pro
    Aproveite o Cifra Club com benefícios exclusivos e sem anúncios
    OK