Cifra Club

Out Of Mind

Queensrÿche

Cifra: Principal (violão e guitarra)
Selo Cifra Club: esta cifra foi revisada para atender aos critérios oficiais da nossa Equipe de Qualidade.
tom: Gm
[Intro]
   Dsus2 (#11)                     Dsus2
E|----10-0-------------------------------|
B|------------9-----9-----9-----9-----10-|
G|---------9--9-----9-----9-----9-----9--|
D|-0-------------0-----0-----0-----0-----| x4
A|---------------------------------------|
E|---------------------------------------|

Dadd9 D7sus2

[Verse 1]
Bb6                         Bb6 A7               A7
Little girl sits in the corner, locked in a stare.
Bb6                      Bb6              A7         A7
Arms waving madly at something that sadly isn't there.
Bb6                  Bb6                   A7                  A7
Dressed in the day's best by a nurse who's nowhere to be found.
Eb            C    Eb          F          
What does she see? Maybe she's looking at

[Interlude 1]
   Dsus2 (#11)                     Dsus2
E|----10-0-------------------------------|
B|------------9-----9-----9-----9-----10-|
G|---------9--9-----9-----9-----9-----9--|
D|-0-------------0-----0-----0-----0-----| x2
A|---------------------------------------|
E|---------------------------------------|

me...
Dadd9 D7sus2

[Verse 2]
Bb6                         Bb6               A7             A7
Old man is strapped to the seat of his chair, wearing a gown.
Bb6                      Bb6                A7          A7
Shouting and cursing at someone who clearly isn't around.
Bb6               Bb6                 A7                       A7
Father Time has twisted his mind. The staff says, "He's not well!"
   Eb           C      Eb         F           
To whom does he speak? Maybe he's speaking to 

[Interlude 2]
   Dsus2 (#11)                     Dsus2
E|----10-0-------------------------------|
B|------------9-----9-----9-----9-----10-|
G|---------9--9-----9-----9-----9-----9--|
D|-0-------------0-----0-----0-----0-----| x2
A|---------------------------------------|
E|---------------------------------------|

me...
Dm7

[Chorus 1]
         Dm7          Dm6                Dm6        Gm  A7 Dm7
So we keep these people inside these walls, from society.
            Dm7          Dm6             Dm6        Gm     A7
Their forgotten lives safe from the crowd, they can't leave.
     Gm       A7              Dm Dm
You've left them there with me.

[Instrumental/Solo]
C C
Bb6 Bb6 Bb6 Bb6
Dm Dm Dm Dm
Bb6 Bb6 Bb6 Bb6
Dm Dm Dm Dm
Bb6 Bb6 Bb6 Bb6
Gm Gm A7 A7
Dm7

[Chorus 2]
          Dm7     Dm6                     Dm6      Gm   A7 Dm7
So we keep these people behind these walls, from society.
            Dm7              Dm6         Dm6        Gm     A7 Dm7
Their forgotten lives safe from the crowd, they can't leave.
                Dm7         Dm6      Dm6      Gm        A7 Dm7
Through the doors come people like me, good-bye to them.
       Dm7               Dm6    Dm6        Gm      A7
They see a picture few of us see. They can't leave.
      Gm        A7          N.C.
You've left them here with me. 
Outros vídeos desta música
13 exibições
    • ½ Tom
    • Am
    • Bbm
    • Bm
    • Cm
    • C#m
    • Dm
    • Ebm
    • Em
    • Fm
    • F#m
    • Gm
    • G#m
  • Adicionar à lista

Afinação da cifra

Afinador online

    0 comentários

    Ver todos os comentários

    Entre para o Cifra Club PRO

    Tenha acesso a benefícios exclusivos no App e no Site

    • Chega de anúncios

    • Mais recursos no app do Afinador

    • Atendimento Prioritário

    • Aumente seu limite de lista

    • Ajude a produzir mais conteúdo

    Cifra Club Pro

    Aproveite o Cifra Club com benefícios exclusivos e sem anúncios
    Cifra Club Pro
    Aproveite o Cifra Club com benefícios exclusivos e sem anúncios
    OK