Cifra Club

Aprenda

Bombtrack

Rage Against The Machine

Tab de baixo: Versão 3
Tabbed By Stephen Pang (*)

Intro
G|-------------------------------|--------------------------------|
D|--2---------------2-------2-5--|--2---------------2-------------|
A|----5-2-5-2---------5-2-5------|----5-2-5-2---------5-2-5-2-----|
E|0-----------5-3-0--------------|0-----------5-3-0-----------3-2-|

Chorus
G|------------------------------------------|
D|-----4-----------4-2------4--------6-5-4--|
A|-----------------------------------4-3-2--|
E|-0-2----0-2-0-2-------0-2----0-2-0--------|

Pre-Verse
G|----------------|
D|-----4----------|
A|-------------4--|
E|-0-2---0-2-0----|

Verse
G|-----------------------|---------------------------|
D|-----------------------|--------------4-2----------|
A|-----------------------|------------------4-3-2----|
E|-2--2--0--2-2--2-2-5^--|-2--2--0--2-0-----------5--|

Pre-Bridge
G|--------------------------------|--------------------------------|
D|--------------------------------|--------------------------------|
A|--------------------------------|--------------------------------|
E|0-0-0-0-0-0-0-0-0-0-0-0-0-0-0-0-|7-7-7-7-7-7-7-7-7-7-7-7-7-7-7-7-|

Bridge
G|---------------------x-x-x-x-|--------------------------------|
D|---------------------x-x-x-x-|--------------------------------|
A|---------------------x-x-x-x-|-------------------4-0-3-0-2-0--|
E|2-0-2-0-5--2-0-2-0-2-x-x-x-x-|2-0-2-0-5--2-0-2-0--------------|

End
G|---------|
D|--4-3-2--|
A|--2-1-0--|
E|---------|
Composição de Brad Wilk / Tim Commerford / Tom Morello / Zack de la Rocha
239 exibições

0 comentários

Ver todos os comentários

Conseguiu tocar?

0 Tocaram 0 Ainda não

Grave um vídeo tocando Bombtrack e nos envie!

00:00 / 00:00
Outros vídeos desta música
Repetir Qualidade Automático
Outros vídeos desta música
00:00 / 00:00
Automático

Cifra Club Pro

Aproveite o Cifra Club com benefícios exclusivos e sem anúncios
Cifra Club Pro
Aproveite o Cifra Club com benefícios exclusivos e sem anúncios
OK